  0
SECTION
  2
HEADER
  9
$ACADVER
  1
AC1014
  9
$HANDSEED
  5
FFFF
  9
$MEASUREMENT
 70
     1
  0
ENDSEC
  0
SECTION
  2
TABLES
  0
TABLE
  2
VPORT
  5
8
330
0
100
AcDbSymbolTable
 70
     4
  0
VPORT
  5
2E
330
8
100
AcDbSymbolTableRecord
100
AcDbViewportTableRecord
  2
*ACTIVE
 70
     0
 10
0.0
 20
0.0
 11
1.0
 21
1.0
 12
210.0
 22
148.5
 13
0.0
 23
0.0
 14
10.0
 24
10.0
 15
10.0
 25
10.0
 16
0.0
 26
0.0
 36
1.0
 17
0.0
 27
0.0
 37
0.0
 40
341.0
 41
1.24
 42
50.0
 43
0.0
 44
0.0
 50
0.0
 51
0.0
 71
     0
 72
   100
 73
     1
 74
     3
 75
     0
 76
     0
 77
     0
 78
     0
  0
ENDTAB
  0
TABLE
  2
LTYPE
  5
5
330
0
100
AcDbSymbolTable
 70
     1
  0
LTYPE
  5
14
330
5
100
AcDbSymbolTableRecord
100
AcDbLinetypeTableRecord
  2
BYBLOCK
 70
     0
  3

 72
    65
 73
     0
 40
0.0
  0
LTYPE
  5
15
330
5
100
AcDbSymbolTableRecord
100
AcDbLinetypeTableRecord
  2
BYLAYER
 70
     0
  3

 72
    65
 73
     0
 40
0.0
  0
LTYPE
  5
16
330
5
100
AcDbSymbolTableRecord
100
AcDbLinetypeTableRecord
  2
CONTINUOUS
 70
     0
  3
Solid line
 72
    65
 73
     0
 40
0.0
  0
ENDTAB
  0
TABLE
  2
LAYER
  5
2
100
AcDbSymbolTable
 70
1
  0
LAYER
  5
50
100
AcDbSymbolTableRecord
100
AcDbLayerTableRecord
  2
0
 70
0
  6
CONTINUOUS
  0
ENDTAB
  0
TABLE
  2
STYLE
  5
3
330
0
100
AcDbSymbolTable
 70
     1
  0
STYLE
  5
11
330
3
100
AcDbSymbolTableRecord
100
AcDbTextStyleTableRecord
  2
STANDARD
 70
     0
 40
0.0
 41
1.0
 50
0.0
 71
     0
 42
2.5
  3
txt
  4

  0
ENDTAB
  0
TABLE
  2
VIEW
  5
6
330
0
100
AcDbSymbolTable
 70
     0
  0
ENDTAB
  0
TABLE
  2
UCS
  5
7
330
0
100
AcDbSymbolTable
 70
     0
  0
ENDTAB
  0
TABLE
  2
APPID
  5
9
330
0
100
AcDbSymbolTable
 70
     2
  0
APPID
  5
12
330
9
100
AcDbSymbolTableRecord
100
AcDbRegAppTableRecord
  2
ACAD
 70
     0
  0
ENDTAB
  0
TABLE
  2
DIMSTYLE
  5
A
330
0
100
AcDbSymbolTable
 70
     1
  0
DIMSTYLE
105
27
330
A
100
AcDbSymbolTableRecord
100
AcDbDimStyleTableRecord
  2
ISO-25
 70
     0
  3

  4

  5

  6

  7

 40
1.0
 41
2.5
 42
0.625
 43
3.75
 44
1.25
 45
0.0
 46
0.0
 47
0.0
 48
0.0
140
2.5
141
2.5
142
0.0
143
0.03937007874016
144
1.0
145
0.0
146
1.0
147
0.625
 71
     0
 72
     0
 73
     0
 74
     0
 75
     0
 76
     0
 77
     1
 78
     8
170
     0
171
     3
172
     1
173
     0
174
     0
175
     0
176
     0
177
     0
178
     0
270
     2
271
     2
272
     2
273
     2
274
     3
340
11
275
     0
280
     0
281
     0
282
     0
283
     0
284
     8
285
     0
286
     0
287
     3
288
     0
  0
ENDTAB
  0
TABLE
  2
BLOCK_RECORD
  5
1
330
0
100
AcDbSymbolTable
 70
     1
  0
BLOCK_RECORD
  5
1F
330
1
100
AcDbSymbolTableRecord
100
AcDbBlockTableRecord
  2
*MODEL_SPACE
  0
BLOCK_RECORD
  5
1B
330
1
100
AcDbSymbolTableRecord
100
AcDbBlockTableRecord
  2
*PAPER_SPACE
  0
ENDTAB
  0
ENDSEC
  0
SECTION
  2
BLOCKS
  0
BLOCK
  5
20
330
1F
100
AcDbEntity
  8
0
100
AcDbBlockBegin
  2
*MODEL_SPACE
 70
     0
 10
0.0
 20
0.0
 30
0.0
  3
*MODEL_SPACE
  1

  0
ENDBLK
  5
21
330
1F
100
AcDbEntity
  8
0
100
AcDbBlockEnd
  0
BLOCK
  5
1C
330
1B
100
AcDbEntity
 67
     1
  8
0
100
AcDbBlockBegin
  2
*PAPER_SPACE
  1

  0
ENDBLK
  5
1D
330
1B
100
AcDbEntity
 67
     1
  8
0
100
AcDbBlockEnd
  0
ENDSEC
  0
SECTION
  2
ENTITIES
  0
SPLINE
  5
100
100
AcDbEntity
  8
0
 62
7
100
AcDbSpline
 70
0
 71
3
 72
25
 73
21
 74
19
 40
0.000000
 40
0.000000
 40
0.000000
 40
0.000000
 40
0.383861
 40
0.762228
 40
1.146088
 40
1.529949
 40
1.908316
 40
2.292177
 40
2.676037
 40
3.054404
 40
3.438265
 40
3.822126
 40
4.200493
 40
4.584353
 40
4.968214
 40
5.346581
 40
5.730441
 40
6.114302
 40
6.492669
 40
6.876530
 40
6.876530
 40
6.876530
 40
6.876530
 10
121.508446
 20
-21.811595
 30
0.0
 10
121.495304
 20
-21.940201
 30
0.0
 10
121.469206
 20
-22.195573
 30
0.0
 10
121.266733
 20
-22.533050
 30
0.0
 10
120.970277
 20
-22.783956
 30
0.0
 10
120.603173
 20
-22.917028
 30
0.0
 10
120.213634
 20
-22.917028
 30
0.0
 10
119.847044
 20
-22.783956
 30
0.0
 10
119.548536
 20
-22.533050
 30
0.0
 10
119.353691
 20
-22.195573
 30
0.0
 10
119.285660
 20
-21.811595
 30
0.0
 10
119.353691
 20
-21.427617
 30
0.0
 10
119.548536
 20
-21.090139
 30
0.0
 10
119.847044
 20
-20.839233
 30
0.0
 10
120.213634
 20
-20.706161
 30
0.0
 10
120.603173
 20
-20.706161
 30
0.0
 10
120.970277
 20
-20.839233
 30
0.0
 10
121.266733
 20
-21.090139
 30
0.0
 10
121.469206
 20
-21.427617
 30
0.0
 10
121.495304
 20
-21.682989
 30
0.0
 10
121.508446
 20
-21.811595
 30
0.0
 11
121.508446
 21
-21.811595
 31
0.0
 11
121.441485
 21
-22.189570
 31
0.0
 11
121.252302
 21
-22.517245
 31
0.0
 11
120.958446
 21
-22.764223
 31
0.0
 11
120.597630
 21
-22.895220
 31
0.0
 11
120.219263
 21
-22.895220
 31
0.0
 11
119.858446
 21
-22.764223
 31
0.0
 11
119.564590
 21
-22.517245
 31
0.0
 11
119.375407
 21
-22.189570
 31
0.0
 11
119.308446
 21
-21.811595
 31
0.0
 11
119.375407
 21
-21.433620
 31
0.0
 11
119.564590
 21
-21.105944
 31
0.0
 11
119.858446
 21
-20.858966
 31
0.0
 11
120.219263
 21
-20.727969
 31
0.0
 11
120.597630
 21
-20.727969
 31
0.0
 11
120.958446
 21
-20.858966
 31
0.0
 11
121.252302
 21
-21.105944
 31
0.0
 11
121.441485
 21
-21.433620
 31
0.0
 11
121.508446
 21
-21.811595
 31
0.0
  0
LWPOLYLINE
  5
101
100
AcDbEntity
  8
0
 62
7
100
AcDbPolyline
 90
1
 70
1
 10
121.508446
 20
-21.811595
 30
0.0
  0
SPLINE
  5
102
100
AcDbEntity
  8
0
 62
7
100
AcDbSpline
 70
0
 71
3
 72
25
 73
21
 74
19
 40
0.000000
 40
0.000000
 40
0.000000
 40
0.000000
 40
0.383861
 40
0.762228
 40
1.146088
 40
1.529949
 40
1.908316
 40
2.292177
 40
2.676037
 40
3.054404
 40
3.438265
 40
3.822126
 40
4.200493
 40
4.584353
 40
4.968214
 40
5.346581
 40
5.730441
 40
6.114302
 40
6.492669
 40
6.876530
 40
6.876530
 40
6.876530
 40
6.876530
 10
135.258228
 20
-69.311703
 30
0.0
 10
135.245086
 20
-69.440309
 30
0.0
 10
135.218988
 20
-69.695681
 30
0.0
 10
135.016515
 20
-70.033158
 30
0.0
 10
134.720059
 20
-70.284064
 30
0.0
 10
134.352955
 20
-70.417136
 30
0.0
 10
133.963416
 20
-70.417136
 30
0.0
 10
133.596826
 20
-70.284064
 30
0.0
 10
133.298318
 20
-70.033158
 30
0.0
 10
133.103473
 20
-69.695681
 30
0.0
 10
133.035442
 20
-69.311703
 30
0.0
 10
133.103473
 20
-68.927725
 30
0.0
 10
133.298318
 20
-68.590247
 30
0.0
 10
133.596826
 20
-68.339342
 30
0.0
 10
133.963416
 20
-68.206269
 30
0.0
 10
134.352955
 20
-68.206269
 30
0.0
 10
134.720059
 20
-68.339342
 30
0.0
 10
135.016515
 20
-68.590247
 30
0.0
 10
135.218988
 20
-68.927725
 30
0.0
 10
135.245086
 20
-69.183097
 30
0.0
 10
135.258228
 20
-69.311703
 30
0.0
 11
135.258228
 21
-69.311703
 31
0.0
 11
135.191267
 21
-69.689678
 31
0.0
 11
135.002084
 21
-70.017353
 31
0.0
 11
134.708228
 21
-70.264331
 31
0.0
 11
134.347412
 21
-70.395329
 31
0.0
 11
133.969045
 21
-70.395329
 31
0.0
 11
133.608228
 21
-70.264331
 31
0.0
 11
133.314372
 21
-70.017353
 31
0.0
 11
133.125189
 21
-69.689678
 31
0.0
 11
133.058228
 21
-69.311703
 31
0.0
 11
133.125189
 21
-68.933728
 31
0.0
 11
133.314372
 21
-68.606052
 31
0.0
 11
133.608228
 21
-68.359075
 31
0.0
 11
133.969045
 21
-68.228077
 31
0.0
 11
134.347412
 21
-68.228077
 31
0.0
 11
134.708228
 21
-68.359075
 31
0.0
 11
135.002084
 21
-68.606052
 31
0.0
 11
135.191267
 21
-68.933728
 31
0.0
 11
135.258228
 21
-69.311703
 31
0.0
  0
LWPOLYLINE
  5
103
100
AcDbEntity
  8
0
 62
7
100
AcDbPolyline
 90
1
 70
1
 10
135.258228
 20
-69.311703
 30
0.0
  0
SPLINE
  5
104
100
AcDbEntity
  8
0
 62
7
100
AcDbSpline
 70
0
 71
3
 72
25
 73
21
 74
19
 40
0.000000
 40
0.000000
 40
0.000000
 40
0.000000
 40
0.383861
 40
0.762228
 40
1.146088
 40
1.529949
 40
1.908316
 40
2.292177
 40
2.676037
 40
3.054404
 40
3.438265
 40
3.822126
 40
4.200493
 40
4.584353
 40
4.968214
 40
5.346581
 40
5.730441
 40
6.114302
 40
6.492669
 40
6.876530
 40
6.876530
 40
6.876530
 40
6.876530
 10
88.758448
 20
-61.561655
 30
0.0
 10
88.745306
 20
-61.690261
 30
0.0
 10
88.719208
 20
-61.945633
 30
0.0
 10
88.516735
 20
-62.283110
 30
0.0
 10
88.220279
 20
-62.534016
 30
0.0
 10
87.853175
 20
-62.667088
 30
0.0
 10
87.463636
 20
-62.667088
 30
0.0
 10
87.097046
 20
-62.534016
 30
0.0
 10
86.798538
 20
-62.283110
 30
0.0
 10
86.603693
 20
-61.945633
 30
0.0
 10
86.535662
 20
-61.561655
 30
0.0
 10
86.603693
 20
-61.177677
 30
0.0
 10
86.798538
 20
-60.840199
 30
0.0
 10
87.097046
 20
-60.589294
 30
0.0
 10
87.463636
 20
-60.456221
 30
0.0
 10
87.853175
 20
-60.456221
 30
0.0
 10
88.220279
 20
-60.589294
 30
0.0
 10
88.516735
 20
-60.840199
 30
0.0
 10
88.719208
 20
-61.177677
 30
0.0
 10
88.745306
 20
-61.433049
 30
0.0
 10
88.758448
 20
-61.561655
 30
0.0
 11
88.758448
 21
-61.561655
 31
0.0
 11
88.691487
 21
-61.939630
 31
0.0
 11
88.502304
 21
-62.267305
 31
0.0
 11
88.208448
 21
-62.514283
 31
0.0
 11
87.847632
 21
-62.645281
 31
0.0
 11
87.469265
 21
-62.645281
 31
0.0
 11
87.108448
 21
-62.514283
 31
0.0
 11
86.814592
 21
-62.267305
 31
0.0
 11
86.625409
 21
-61.939630
 31
0.0
 11
86.558448
 21
-61.561655
 31
0.0
 11
86.625409
 21
-61.183680
 31
0.0
 11
86.814592
 21
-60.856004
 31
0.0
 11
87.108448
 21
-60.609027
 31
0.0
 11
87.469265
 21
-60.478029
 31
0.0
 11
87.847632
 21
-60.478029
 31
0.0
 11
88.208448
 21
-60.609027
 31
0.0
 11
88.502304
 21
-60.856004
 31
0.0
 11
88.691487
 21
-61.183680
 31
0.0
 11
88.758448
 21
-61.561655
 31
0.0
  0
LWPOLYLINE
  5
105
100
AcDbEntity
  8
0
 62
7
100
AcDbPolyline
 90
1
 70
1
 10
88.758448
 20
-61.561655
 30
0.0
  0
SPLINE
  5
106
100
AcDbEntity
  8
0
 62
7
100
AcDbSpline
 70
0
 71
3
 72
25
 73
21
 74
19
 40
0.000000
 40
0.000000
 40
0.000000
 40
0.000000
 40
0.383861
 40
0.762228
 40
1.146088
 40
1.529949
 40
1.908316
 40
2.292177
 40
2.676037
 40
3.054404
 40
3.438265
 40
3.822126
 40
4.200493
 40
4.584353
 40
4.968214
 40
5.346581
 40
5.730441
 40
6.114302
 40
6.492669
 40
6.876530
 40
6.876530
 40
6.876530
 40
6.876530
 10
45.508344
 20
-44.311499
 30
0.0
 10
45.495202
 20
-44.440105
 30
0.0
 10
45.469104
 20
-44.695477
 30
0.0
 10
45.266631
 20
-45.032954
 30
0.0
 10
44.970175
 20
-45.283860
 30
0.0
 10
44.603071
 20
-45.416932
 30
0.0
 10
44.213532
 20
-45.416932
 30
0.0
 10
43.846942
 20
-45.283860
 30
0.0
 10
43.548434
 20
-45.032954
 30
0.0
 10
43.353589
 20
-44.695477
 30
0.0
 10
43.285558
 20
-44.311499
 30
0.0
 10
43.353589
 20
-43.927521
 30
0.0
 10
43.548434
 20
-43.590043
 30
0.0
 10
43.846942
 20
-43.339138
 30
0.0
 10
44.213532
 20
-43.206065
 30
0.0
 10
44.603071
 20
-43.206065
 30
0.0
 10
44.970175
 20
-43.339138
 30
0.0
 10
45.266631
 20
-43.590043
 30
0.0
 10
45.469104
 20
-43.927521
 30
0.0
 10
45.495202
 20
-44.182893
 30
0.0
 10
45.508344
 20
-44.311499
 30
0.0
 11
45.508344
 21
-44.311499
 31
0.0
 11
45.441383
 21
-44.689474
 31
0.0
 11
45.252200
 21
-45.017149
 31
0.0
 11
44.958344
 21
-45.264127
 31
0.0
 11
44.597527
 21
-45.395125
 31
0.0
 11
44.219161
 21
-45.395125
 31
0.0
 11
43.858344
 21
-45.264127
 31
0.0
 11
43.564488
 21
-45.017149
 31
0.0
 11
43.375305
 21
-44.689474
 31
0.0
 11
43.308344
 21
-44.311499
 31
0.0
 11
43.375305
 21
-43.933524
 31
0.0
 11
43.564488
 21
-43.605848
 31
0.0
 11
43.858344
 21
-43.358871
 31
0.0
 11
44.219161
 21
-43.227873
 31
0.0
 11
44.597527
 21
-43.227873
 31
0.0
 11
44.958344
 21
-43.358871
 31
0.0
 11
45.252200
 21
-43.605848
 31
0.0
 11
45.441383
 21
-43.933524
 31
0.0
 11
45.508344
 21
-44.311499
 31
0.0
  0
LWPOLYLINE
  5
107
100
AcDbEntity
  8
0
 62
7
100
AcDbPolyline
 90
1
 70
1
 10
45.508344
 20
-44.311499
 30
0.0
  0
LWPOLYLINE
  5
108
100
AcDbEntity
  8
0
 62
7
100
AcDbPolyline
 90
1
 70
1
 10
45.508344
 20
-25.561473
 30
0.0
  0
LWPOLYLINE
  5
109
100
AcDbEntity
  8
0
 62
7
100
AcDbPolyline
 90
2
 70
0
 10
7.421880
 20
-39.364595
 30
0.0
 10
25.473660
 20
-39.364595
 30
0.0
  0
SPLINE
  5
10a
100
AcDbEntity
  8
0
 62
7
100
AcDbSpline
 70
0
 71
3
 72
25
 73
21
 74
19
 40
0.000000
 40
0.000000
 40
0.000000
 40
0.000000
 40
0.383861
 40
0.762228
 40
1.146088
 40
1.529949
 40
1.908316
 40
2.292177
 40
2.676037
 40
3.054404
 40
3.438265
 40
3.822126
 40
4.200493
 40
4.584353
 40
4.968214
 40
5.346581
 40
5.730441
 40
6.114302
 40
6.492669
 40
6.876530
 40
6.876530
 40
6.876530
 40
6.876530
 10
45.508344
 20
-25.561473
 30
0.0
 10
45.495202
 20
-25.690079
 30
0.0
 10
45.469104
 20
-25.945451
 30
0.0
 10
45.266631
 20
-26.282928
 30
0.0
 10
44.970175
 20
-26.533834
 30
0.0
 10
44.603071
 20
-26.666906
 30
0.0
 10
44.213532
 20
-26.666906
 30
0.0
 10
43.846942
 20
-26.533834
 30
0.0
 10
43.548434
 20
-26.282928
 30
0.0
 10
43.353589
 20
-25.945451
 30
0.0
 10
43.285558
 20
-25.561473
 30
0.0
 10
43.353589
 20
-25.177495
 30
0.0
 10
43.548434
 20
-24.840017
 30
0.0
 10
43.846942
 20
-24.589112
 30
0.0
 10
44.213532
 20
-24.456039
 30
0.0
 10
44.603071
 20
-24.456039
 30
0.0
 10
44.970175
 20
-24.589112
 30
0.0
 10
45.266631
 20
-24.840017
 30
0.0
 10
45.469104
 20
-25.177495
 30
0.0
 10
45.495202
 20
-25.432867
 30
0.0
 10
45.508344
 20
-25.561473
 30
0.0
 11
45.508344
 21
-25.561473
 31
0.0
 11
45.441383
 21
-25.939448
 31
0.0
 11
45.252200
 21
-26.267123
 31
0.0
 11
44.958344
 21
-26.514101
 31
0.0
 11
44.597527
 21
-26.645099
 31
0.0
 11
44.219161
 21
-26.645099
 31
0.0
 11
43.858344
 21
-26.514101
 31
0.0
 11
43.564488
 21
-26.267123
 31
0.0
 11
43.375305
 21
-25.939448
 31
0.0
 11
43.308344
 21
-25.561473
 31
0.0
 11
43.375305
 21
-25.183498
 31
0.0
 11
43.564488
 21
-24.855822
 31
0.0
 11
43.858344
 21
-24.608845
 31
0.0
 11
44.219161
 21
-24.477847
 31
0.0
 11
44.597527
 21
-24.477847
 31
0.0
 11
44.958344
 21
-24.608845
 31
0.0
 11
45.252200
 21
-24.855822
 31
0.0
 11
45.441383
 21
-25.183498
 31
0.0
 11
45.508344
 21
-25.561473
 31
0.0
  0
LWPOLYLINE
  5
10b
100
AcDbEntity
  8
0
 62
7
100
AcDbPolyline
 90
2
 70
0
 10
25.974040
 20
-7.403775
 30
0.0
 10
25.974040
 20
-20.357775
 30
0.0
  0
LWPOLYLINE
  5
10c
100
AcDbEntity
  8
0
 62
7
100
AcDbPolyline
 90
2
 70
0
 10
25.473660
 20
-20.858155
 30
0.0
 10
7.426960
 20
-20.865775
 30
0.0
  0
SPLINE
  5
10d
100
AcDbEntity
  8
0
 62
7
100
AcDbSpline
 70
0
 71
3
 72
10
 73
6
 74
4
 40
0.000000
 40
0.000000
 40
0.000000
 40
0.000000
 40
0.261345
 40
0.514943
 40
0.776288
 40
0.776288
 40
0.776288
 40
0.776288
 10
25.974548
 20
-39.865483
 30
0.0
 10
25.960782
 20
-39.777902
 30
0.0
 10
25.933659
 20
-39.605337
 30
0.0
 10
25.734822
 20
-39.406500
 30
0.0
 10
25.562257
 20
-39.379377
 30
0.0
 10
25.474676
 20
-39.365611
 30
0.0
 11
25.974548
 21
-39.865483
 31
0.0
 11
25.906263
 21
-39.613216
 31
0.0
 11
25.726942
 21
-39.433896
 31
0.0
 11
25.474676
 21
-39.365611
 31
0.0
  0
SPLINE
  5
10e
100
AcDbEntity
  8
0
 62
7
100
AcDbSpline
 70
0
 71
3
 72
13
 73
9
 74
7
 40
0.000000
 40
0.000000
 40
0.000000
 40
0.000000
 40
0.130908
 40
0.260733
 40
0.391641
 40
0.522550
 40
0.652374
 40
0.783283
 40
0.783283
 40
0.783283
 40
0.783283
 10
6.923202
 20
-38.865739
 30
0.0
 10
6.926525
 20
-38.909503
 30
0.0
 10
6.933144
 20
-38.996670
 30
0.0
 10
6.985592
 20
-39.118621
 30
0.0
 10
7.065406
 20
-39.223570
 30
0.0
 10
7.170335
 20
-39.303411
 30
0.0
 10
7.292272
 20
-39.355890
 30
0.0
 10
7.379437
 20
-39.362531
 30
0.0
 10
7.423201
 20
-39.365865
 30
0.0
 11
6.923202
 21
-38.865739
 31
0.0
 11
6.940305
 21
-38.995525
 31
0.0
 11
6.989964
 21
-39.115477
 31
0.0
 11
7.069603
 21
-39.219374
 31
0.0
 11
7.173480
 21
-39.299040
 31
0.0
 11
7.293419
 21
-39.348729
 31
0.0
 11
7.423201
 21
-39.365865
 31
0.0
  0
LWPOLYLINE
  5
10f
100
AcDbEntity
  8
0
 62
7
100
AcDbPolyline
 90
2
 70
0
 10
6.926580
 20
-21.363615
 30
0.0
 10
6.921500
 20
-38.864215
 30
0.0
  0
SPLINE
  5
110
100
AcDbEntity
  8
0
 62
7
100
AcDbSpline
 70
0
 71
3
 72
13
 73
9
 74
7
 40
0.000000
 40
0.000000
 40
0.000000
 40
0.000000
 40
0.130891
 40
0.260700
 40
0.391591
 40
0.522482
 40
0.652291
 40
0.783182
 40
0.783182
 40
0.783182
 40
0.783182
 10
7.427925
 20
-20.865800
 30
0.0
 10
7.384167
 20
-20.869131
 30
0.0
 10
7.297013
 20
-20.875766
 30
0.0
 10
7.175087
 20
-20.928226
 30
0.0
 10
7.070160
 20
-21.008042
 30
0.0
 10
6.990339
 20
-21.112964
 30
0.0
 10
6.937873
 20
-21.234888
 30
0.0
 10
6.931234
 20
-21.322041
 30
0.0
 10
6.927901
 20
-21.365799
 30
0.0
 11
7.427925
 21
-20.865800
 31
0.0
 11
7.298159
 21
-20.882925
 31
0.0
 11
7.178230
 21
-20.932596
 31
0.0
 11
7.074356
 21
-21.012238
 31
0.0
 11
6.994709
 21
-21.116107
 31
0.0
 11
6.945032
 21
-21.236034
 31
0.0
 11
6.927901
 21
-21.365799
 31
0.0
  0
SPLINE
  5
111
100
AcDbEntity
  8
0
 62
7
100
AcDbSpline
 70
0
 71
3
 72
10
 73
6
 74
4
 40
0.000000
 40
0.000000
 40
0.000000
 40
0.000000
 40
0.261387
 40
0.515023
 40
0.776410
 40
0.776410
 40
0.776410
 40
0.776410
 10
25.474676
 20
-20.858739
 30
0.0
 10
25.562271
 20
-20.844969
 30
0.0
 10
25.734863
 20
-20.817836
 30
0.0
 10
25.933711
 20
-20.618938
 30
0.0
 10
25.960800
 20
-20.446339
 30
0.0
 10
25.974548
 20
-20.358740
 30
0.0
 11
25.474676
 21
-20.858739
 31
0.0
 11
25.726980
 21
-20.790432
 31
0.0
 11
25.906305
 21
-20.611062
 31
0.0
 11
25.974548
 21
-20.358740
 31
0.0
  0
SPLINE
  5
112
100
AcDbEntity
  8
0
 62
7
100
AcDbSpline
 70
0
 71
3
 72
10
 73
6
 74
4
 40
0.000000
 40
0.000000
 40
0.000000
 40
0.000000
 40
0.259807
 40
0.516722
 40
0.776529
 40
0.776529
 40
0.776529
 40
0.776529
 10
138.905488
 20
-55.621865
 30
0.0
 10
138.915989
 20
-55.708296
 30
0.0
 10
138.936876
 20
-55.880196
 30
0.0
 10
139.061932
 20
-56.115814
 30
0.0
 10
139.192596
 20
-56.229448
 30
0.0
 10
139.258294
 20
-56.286583
 30
0.0
 11
138.905488
 21
-55.621865
 31
0.0
 11
138.952750
 21
-55.877337
 31
0.0
 11
139.073196
 21
-56.104269
 31
0.0
 11
139.258294
 21
-56.286583
 31
0.0
  0
LWPOLYLINE
  5
113
100
AcDbEntity
  8
0
 62
7
100
AcDbPolyline
 90
2
 70
0
 10
25.976580
 20
-62.559875
 30
0.0
 10
25.974040
 20
-39.864975
 30
0.0
  0
SPLINE
  5
114
100
AcDbEntity
  8
0
 62
7
100
AcDbSpline
 70
0
 71
3
 72
13
 73
9
 74
7
 40
0.000000
 40
0.000000
 40
0.000000
 40
0.000000
 40
0.363945
 40
0.724863
 40
1.088807
 40
1.452752
 40
1.813670
 40
2.177614
 40
2.177614
 40
2.177614
 40
2.177614
 10
158.558230
 20
-69.136697
 30
0.0
 10
158.618528
 20
-69.030610
 30
0.0
 10
158.738622
 20
-68.819319
 30
0.0
 10
158.806765
 20
-68.456573
 30
0.0
 10
158.785177
 20
-68.090631
 30
0.0
 10
158.666483
 20
-67.743801
 30
0.0
 10
158.465961
 20
-67.433932
 30
0.0
 10
158.274756
 20
-67.283908
 30
0.0
 10
158.178754
 20
-67.208583
 30
0.0
 11
158.558230
 21
-69.136697
 31
0.0
 11
158.720285
 21
-68.810823
 31
0.0
 11
158.791766
 21
-68.457054
 31
0.0
 11
158.768947
 21
-68.093825
 31
0.0
 11
158.652420
 21
-67.749040
 31
0.0
 11
158.452211
 21
-67.448743
 31
0.0
 11
158.178754
 21
-67.208583
 31
0.0
  0
SPLINE
  5
115
100
AcDbEntity
  8
0
 62
7
100
AcDbSpline
 70
0
 71
3
 72
13
 73
9
 74
7
 40
0.000000
 40
0.000000
 40
0.000000
 40
0.000000
 40
0.363945
 40
0.724863
 40
1.088807
 40
1.452752
 40
1.813670
 40
2.177614
 40
2.177614
 40
2.177614
 40
2.177614
 10
144.277588
 20
-90.972569
 30
0.0
 10
144.383675
 20
-91.032867
 30
0.0
 10
144.594966
 20
-91.152961
 30
0.0
 10
144.957712
 20
-91.221104
 30
0.0
 10
145.323654
 20
-91.199515
 30
0.0
 10
145.670484
 20
-91.080822
 30
0.0
 10
145.980353
 20
-90.880300
 30
0.0
 10
146.130377
 20
-90.689095
 30
0.0
 10
146.205702
 20
-90.593093
 30
0.0
 11
144.277588
 21
-90.972569
 31
0.0
 11
144.603462
 21
-91.134624
 31
0.0
 11
144.957231
 21
-91.206104
 31
0.0
 11
145.320459
 21
-91.183286
 31
0.0
 11
145.665245
 21
-91.066759
 31
0.0
 11
145.965542
 21
-90.866550
 31
0.0
 11
146.205702
 21
-90.593093
 31
0.0
  0
LWPOLYLINE
  5
116
100
AcDbEntity
  8
0
 62
7
100
AcDbPolyline
 90
2
 70
0
 10
158.178500
 20
-67.208075
 30
0.0
 10
139.258040
 20
-56.286075
 30
0.0
  0
LWPOLYLINE
  5
117
100
AcDbEntity
  8
0
 62
7
100
AcDbPolyline
 90
2
 70
0
 10
146.204940
 20
-90.591315
 30
0.0
 10
158.556960
 20
-69.135935
 30
0.0
  0
LWPOLYLINE
  5
118
100
AcDbEntity
  8
0
 62
7
100
AcDbPolyline
 90
2
 70
0
 10
129.981960
 20
-82.709695
 30
0.0
 10
144.277080
 20
-90.972315
 30
0.0
  0
SPLINE
  5
119
100
AcDbEntity
  8
0
 62
7
100
AcDbSpline
 70
0
 71
3
 72
10
 73
6
 74
4
 40
0.000000
 40
0.000000
 40
0.000000
 40
0.000000
 40
0.222690
 40
0.445261
 40
0.667951
 40
0.667951
 40
0.667951
 40
0.667951
 10
129.983230
 20
-82.711473
 30
0.0
 10
129.911747
 20
-82.691403
 30
0.0
 10
129.768820
 20
-82.651273
 30
0.0
 10
129.550100
 20
-82.607970
 30
0.0
 10
129.402664
 20
-82.590614
 30
0.0
 10
129.328926
 20
-82.581933
 30
0.0
 11
129.983230
 21
-82.711473
 31
0.0
 11
129.768063
 21
-82.654080
 31
0.0
 11
129.549730
 21
-82.610854
 31
0.0
 11
129.328926
 21
-82.581933
 31
0.0
  0
LWPOLYLINE
  5
11a
100
AcDbEntity
  8
0
 62
7
100
AcDbPolyline
 90
2
 70
0
 10
92.656660
 20
-77.810035
 30
0.0
 10
129.326640
 20
-82.580155
 30
0.0
  0
LWPOLYLINE
  5
11b
100
AcDbEntity
  8
0
 62
7
100
AcDbPolyline
 90
2
 70
0
 10
81.760060
 20
-63.207575
 30
0.0
 10
92.303600
 20
-77.662715
 30
0.0
  0
SPLINE
  5
11c
100
AcDbEntity
  8
0
 62
7
100
AcDbSpline
 70
0
 71
3
 72
10
 73
6
 74
4
 40
0.000000
 40
0.000000
 40
0.000000
 40
0.000000
 40
0.130873
 40
0.260663
 40
0.391535
 40
0.391535
 40
0.391535
 40
0.391535
 10
92.304870
 20
-77.665255
 30
0.0
 10
92.338175
 20
-77.693690
 30
0.0
 10
92.404509
 20
-77.750326
 30
0.0
 10
92.527821
 20
-77.801352
 30
0.0
 10
92.614778
 20
-77.808147
 30
0.0
 10
92.658438
 20
-77.811559
 30
0.0
 11
92.304870
 21
-77.665255
 31
0.0
 11
92.408757
 21
-77.744848
 31
0.0
 11
92.528685
 21
-77.794473
 31
0.0
 11
92.658438
 21
-77.811559
 31
0.0
  0
SPLINE
  5
11d
100
AcDbEntity
  8
0
 62
7
100
AcDbSpline
 70
0
 71
3
 72
10
 73
6
 74
4
 40
0.000000
 40
0.000000
 40
0.000000
 40
0.000000
 40
0.261387
 40
0.515023
 40
0.776410
 40
0.776410
 40
0.776410
 40
0.776410
 10
138.908282
 20
-5.061590
 30
0.0
 10
138.894534
 20
-4.973992
 30
0.0
 10
138.867445
 20
-4.801392
 30
0.0
 10
138.668597
 20
-4.602494
 30
0.0
 10
138.496005
 20
-4.575361
 30
0.0
 10
138.408410
 20
-4.561591
 30
0.0
 11
138.908282
 21
-5.061590
 31
0.0
 11
138.840039
 21
-4.809269
 31
0.0
 11
138.660714
 21
-4.629898
 31
0.0
 11
138.408410
 21
-4.561591
 31
0.0
  0
SPLINE
  5
11e
100
AcDbEntity
  8
0
 62
7
100
AcDbSpline
 70
0
 71
3
 72
10
 73
6
 74
4
 40
0.000000
 40
0.000000
 40
0.000000
 40
0.000000
 40
0.130908
 40
0.260732
 40
0.391639
 40
0.391639
 40
0.391639
 40
0.391639
 10
81.761838
 20
-63.208083
 30
0.0
 10
81.728544
 20
-63.179616
 30
0.0
 10
81.662232
 20
-63.122919
 30
0.0
 10
81.538917
 20
-63.071804
 30
0.0
 10
81.451940
 20
-63.064961
 30
0.0
 10
81.408270
 20
-63.061525
 30
0.0
 11
81.761838
 21
-63.208083
 31
0.0
 11
81.657977
 21
-63.128398
 31
0.0
 11
81.538048
 21
-63.078685
 31
0.0
 11
81.408270
 21
-63.061525
 31
0.0
  0
SPLINE
  5
11f
100
AcDbEntity
  8
0
 62
7
100
AcDbSpline
 70
0
 71
3
 72
10
 73
6
 74
4
 40
0.000000
 40
0.000000
 40
0.000000
 40
0.000000
 40
0.261345
 40
0.514943
 40
0.776288
 40
0.776288
 40
0.776288
 40
0.776288
 10
25.977596
 20
-62.561653
 30
0.0
 10
25.991362
 20
-62.649233
 30
0.0
 10
26.018485
 20
-62.821799
 30
0.0
 10
26.217322
 20
-63.020635
 30
0.0
 10
26.389887
 20
-63.047759
 30
0.0
 10
26.477468
 20
-63.061525
 30
0.0
 11
25.977596
 21
-62.561653
 31
0.0
 11
26.045881
 21
-62.813919
 31
0.0
 11
26.225202
 21
-62.993240
 31
0.0
 11
26.477468
 21
-63.061525
 31
0.0
  0
SPLINE
  5
120
100
AcDbEntity
  8
0
 62
7
100
AcDbSpline
 70
0
 71
3
 72
13
 73
9
 74
7
 40
0.000000
 40
0.000000
 40
0.000000
 40
0.000000
 40
0.142510
 40
0.283358
 40
0.425868
 40
0.568378
 40
0.709226
 40
0.851736
 40
0.851736
 40
0.851736
 40
0.851736
 10
26.408380
 20
-6.811599
 30
0.0
 10
26.360678
 20
-6.815950
 30
0.0
 10
26.265829
 20
-6.824601
 30
0.0
 10
26.137233
 20
-6.892393
 30
0.0
 10
26.034673
 20
-6.993473
 30
0.0
 10
25.969409
 20
-7.121833
 30
0.0
 10
25.943758
 20
-7.264923
 30
0.0
 10
25.964244
 20
-7.357936
 30
0.0
 10
25.974548
 20
-7.404715
 30
0.0
 11
26.408380
 21
-6.811599
 31
0.0
 11
26.267621
 21
-6.833873
 31
0.0
 11
26.142015
 21
-6.897600
 31
0.0
 11
26.040913
 21
-6.998037
 31
0.0
 11
25.975821
 21
-7.124813
 31
0.0
 11
25.953137
 21
-7.263822
 31
0.0
 11
25.974548
 21
-7.404715
 31
0.0
  0
SPLINE
  5
121
100
AcDbEntity
  8
0
 62
7
100
AcDbSpline
 70
0
 71
3
 72
13
 73
9
 74
7
 40
0.000000
 40
0.000000
 40
0.000000
 40
0.000000
 40
0.130908
 40
0.260733
 40
0.391641
 40
0.522550
 40
0.652374
 40
0.783283
 40
0.783283
 40
0.783283
 40
0.783283
 10
63.408306
 20
-6.811599
 30
0.0
 10
63.452070
 20
-6.808276
 30
0.0
 10
63.539237
 20
-6.801658
 30
0.0
 10
63.661188
 20
-6.749209
 30
0.0
 10
63.766137
 20
-6.669395
 30
0.0
 10
63.845978
 20
-6.564466
 30
0.0
 10
63.898457
 20
-6.442529
 30
0.0
 10
63.905098
 20
-6.355364
 30
0.0
 10
63.908432
 20
-6.311600
 30
0.0
 11
63.408306
 21
-6.811599
 31
0.0
 11
63.538092
 21
-6.794496
 31
0.0
 11
63.658044
 21
-6.744838
 31
0.0
 11
63.761941
 21
-6.665198
 31
0.0
 11
63.841607
 21
-6.561321
 31
0.0
 11
63.891296
 21
-6.441382
 31
0.0
 11
63.908432
 21
-6.311600
 31
0.0
  0
SPLINE
  5
122
100
AcDbEntity
  8
0
 62
7
100
AcDbSpline
 70
0
 71
3
 72
10
 73
6
 74
4
 40
0.000000
 40
0.000000
 40
0.000000
 40
0.000000
 40
0.261387
 40
0.515023
 40
0.776410
 40
0.776410
 40
0.776410
 40
0.776410
 10
64.408304
 20
-2.061596
 30
0.0
 10
64.320709
 20
-2.075366
 30
0.0
 10
64.148117
 20
-2.102499
 30
0.0
 10
63.949269
 20
-2.301397
 30
0.0
 10
63.922180
 20
-2.473997
 30
0.0
 10
63.908432
 20
-2.561595
 30
0.0
 11
64.408304
 21
-2.061596
 31
0.0
 11
64.156000
 21
-2.129903
 31
0.0
 11
63.976675
 21
-2.309274
 31
0.0
 11
63.908432
 21
-2.561595
 31
0.0
  0
SPLINE
  5
123
100
AcDbEntity
  8
0
 62
7
100
AcDbSpline
 70
0
 71
3
 72
13
 73
9
 74
7
 40
0.000000
 40
0.000000
 40
0.000000
 40
0.000000
 40
0.130909
 40
0.260734
 40
0.391643
 40
0.522551
 40
0.652376
 40
0.783285
 40
0.783285
 40
0.783285
 40
0.783285
 10
82.408268
 20
-2.061596
 30
0.0
 10
82.452033
 20
-2.058273
 30
0.0
 10
82.539200
 20
-2.051654
 30
0.0
 10
82.661150
 20
-1.999206
 30
0.0
 10
82.766100
 20
-1.919391
 30
0.0
 10
82.845941
 20
-1.814461
 30
0.0
 10
82.898420
 20
-1.692524
 30
0.0
 10
82.905060
 20
-1.605358
 30
0.0
 10
82.908394
 20
-1.561595
 30
0.0
 11
82.408268
 21
-2.061596
 31
0.0
 11
82.538055
 21
-2.044493
 31
0.0
 11
82.658007
 21
-1.994834
 31
0.0
 11
82.761904
 21
-1.915194
 31
0.0
 11
82.841570
 21
-1.811317
 31
0.0
 11
82.891259
 21
-1.691377
 31
0.0
 11
82.908394
 21
-1.561595
 31
0.0
  0
SPLINE
  5
124
100
AcDbEntity
  8
0
 62
7
100
AcDbSpline
 70
0
 71
3
 72
10
 73
6
 74
4
 40
0.000000
 40
0.000000
 40
0.000000
 40
0.000000
 40
0.261387
 40
0.515023
 40
0.776410
 40
0.776410
 40
0.776410
 40
0.776410
 10
83.408266
 20
0.188405
 30
0.0
 10
83.320671
 20
0.174634
 30
0.0
 10
83.148079
 20
0.147502
 30
0.0
 10
82.949231
 20
-0.051397
 30
0.0
 10
82.922142
 20
-0.223996
 30
0.0
 10
82.908394
 20
-0.311594
 30
0.0
 11
83.408266
 21
0.188405
 31
0.0
 11
83.155962
 21
0.120098
 31
0.0
 11
82.976637
 21
-0.059273
 31
0.0
 11
82.908394
 21
-0.311594
 31
0.0
  0
SPLINE
  5
125
100
AcDbEntity
  8
0
 62
7
100
AcDbSpline
 70
0
 71
3
 72
13
 73
9
 74
7
 40
0.000000
 40
0.000000
 40
0.000000
 40
0.000000
 40
0.130908
 40
0.260733
 40
0.391641
 40
0.522550
 40
0.652374
 40
0.783283
 40
0.783283
 40
0.783283
 40
0.783283
 10
100.908358
 20
-0.311594
 30
0.0
 10
100.905024
 20
-0.267831
 30
0.0
 10
100.898383
 20
-0.180666
 30
0.0
 10
100.845904
 20
-0.058729
 30
0.0
 10
100.766063
 20
0.046201
 30
0.0
 10
100.661114
 20
0.126015
 30
0.0
 10
100.539163
 20
0.178463
 30
0.0
 10
100.451996
 20
0.185081
 30
0.0
 10
100.408232
 20
0.188405
 30
0.0
 11
100.908358
 21
-0.311594
 31
0.0
 11
100.891222
 21
-0.181813
 31
0.0
 11
100.841533
 21
-0.061873
 31
0.0
 11
100.761867
 21
0.042003
 31
0.0
 11
100.657970
 21
0.121643
 31
0.0
 11
100.538018
 21
0.171302
 31
0.0
 11
100.408232
 21
0.188405
 31
0.0
  0
SPLINE
  5
126
100
AcDbEntity
  8
0
 62
7
100
AcDbSpline
 70
0
 71
3
 72
10
 73
6
 74
4
 40
0.000000
 40
0.000000
 40
0.000000
 40
0.000000
 40
0.261388
 40
0.515025
 40
0.776413
 40
0.776413
 40
0.776413
 40
0.776413
 10
100.908358
 20
-1.561595
 30
0.0
 10
100.922106
 20
-1.649193
 30
0.0
 10
100.949194
 20
-1.821793
 30
0.0
 10
101.148042
 20
-2.020693
 30
0.0
 10
101.320635
 20
-2.047826
 30
0.0
 10
101.408230
 20
-2.061596
 30
0.0
 11
100.908358
 21
-1.561595
 31
0.0
 11
100.976600
 21
-1.813917
 31
0.0
 11
101.155925
 21
-1.993289
 31
0.0
 11
101.408230
 21
-2.061596
 31
0.0
  0
SPLINE
  5
127
100
AcDbEntity
  8
0
 62
7
100
AcDbSpline
 70
0
 71
3
 72
10
 73
6
 74
4
 40
0.000000
 40
0.000000
 40
0.000000
 40
0.000000
 40
0.261387
 40
0.515023
 40
0.776410
 40
0.776410
 40
0.776410
 40
0.776410
 10
119.908320
 20
-2.561595
 30
0.0
 10
119.894572
 20
-2.473997
 30
0.0
 10
119.867483
 20
-2.301397
 30
0.0
 10
119.668635
 20
-2.102499
 30
0.0
 10
119.496043
 20
-2.075366
 30
0.0
 10
119.408448
 20
-2.061596
 30
0.0
 11
119.908320
 21
-2.561595
 31
0.0
 11
119.840077
 21
-2.309274
 31
0.0
 11
119.660752
 21
-2.129903
 31
0.0
 11
119.408448
 21
-2.061596
 31
0.0
  0
LWPOLYLINE
  5
128
100
AcDbEntity
  8
0
 62
7
100
AcDbPolyline
 90
2
 70
0
 10
138.907520
 20
-5.059355
 30
0.0
 10
138.904980
 20
-55.620595
 30
0.0
  0
LWPOLYLINE
  5
129
100
AcDbEntity
  8
0
 62
7
100
AcDbPolyline
 90
2
 70
0
 10
81.407000
 20
-63.060255
 30
0.0
 10
26.476960
 20
-63.060255
 30
0.0
  0
LWPOLYLINE
  5
12a
100
AcDbEntity
  8
0
 62
7
100
AcDbPolyline
 90
2
 70
0
 10
63.406020
 20
-6.809415
 30
0.0
 10
26.405840
 20
-6.809415
 30
0.0
  0
LWPOLYLINE
  5
12b
100
AcDbEntity
  8
0
 62
7
100
AcDbPolyline
 90
2
 70
0
 10
63.906400
 20
-2.559995
 30
0.0
 10
63.906400
 20
-6.311575
 30
0.0
  0
LWPOLYLINE
  5
12c
100
AcDbEntity
  8
0
 62
7
100
AcDbPolyline
 90
2
 70
0
 10
82.407760
 20
-2.059615
 30
0.0
 10
64.406780
 20
-2.059615
 30
0.0
  0
LWPOLYLINE
  5
12d
100
AcDbEntity
  8
0
 62
7
100
AcDbPolyline
 90
2
 70
0
 10
82.908140
 20
-0.309555
 30
0.0
 10
82.908140
 20
-1.559235
 30
0.0
  0
LWPOLYLINE
  5
12e
100
AcDbEntity
  8
0
 62
7
100
AcDbPolyline
 90
2
 70
0
 10
100.406200
 20
0.190825
 30
0.0
 10
83.405980
 20
0.190825
 30
0.0
  0
LWPOLYLINE
  5
12f
100
AcDbEntity
  8
0
 62
7
100
AcDbPolyline
 90
2
 70
0
 10
100.906580
 20
-1.559235
 30
0.0
 10
100.906580
 20
-0.309555
 30
0.0
  0
LWPOLYLINE
  5
130
100
AcDbEntity
  8
0
 62
7
100
AcDbPolyline
 90
2
 70
0
 10
119.407940
 20
-2.059615
 30
0.0
 10
101.406960
 20
-2.059615
 30
0.0
  0
LWPOLYLINE
  5
131
100
AcDbEntity
  8
0
 62
7
100
AcDbPolyline
 90
2
 70
0
 10
119.908320
 20
-4.061135
 30
0.0
 10
119.908320
 20
-2.559995
 30
0.0
  0
SPLINE
  5
132
100
AcDbEntity
  8
0
 62
7
100
AcDbSpline
 70
0
 71
3
 72
13
 73
9
 74
7
 40
0.000000
 40
0.000000
 40
0.000000
 40
0.000000
 40
0.130908
 40
0.260733
 40
0.391641
 40
0.522550
 40
0.652374
 40
0.783283
 40
0.783283
 40
0.783283
 40
0.783283
 10
119.908320
 20
-4.061592
 30
0.0
 10
119.911654
 20
-4.105356
 30
0.0
 10
119.918295
 20
-4.192521
 30
0.0
 10
119.970774
 20
-4.314458
 30
0.0
 10
120.050615
 20
-4.419387
 30
0.0
 10
120.155564
 20
-4.499201
 30
0.0
 10
120.277515
 20
-4.551649
 30
0.0
 10
120.364682
 20
-4.558268
 30
0.0
 10
120.408446
 20
-4.561591
 30
0.0
 11
119.908320
 21
-4.061592
 31
0.0
 11
119.925456
 21
-4.191374
 31
0.0
 11
119.975145
 21
-4.311313
 31
0.0
 11
120.054811
 21
-4.415190
 31
0.0
 11
120.158708
 21
-4.494829
 31
0.0
 11
120.278660
 21
-4.544488
 31
0.0
 11
120.408446
 21
-4.561591
 31
0.0
  0
SPLINE
  5
133
100
AcDbEntity
  8
0
 62
7
100
AcDbSpline
 70
0
 71
3
 72
10
 73
6
 74
4
 40
0.000000
 40
0.000000
 40
0.000000
 40
0.000000
 40
0.174473
 40
0.346450
 40
0.520923
 40
0.520923
 40
0.520923
 40
0.520923
 10
18.606237
 20
-21.933108
 30
0.0
 10
18.640642
 20
-21.980511
 30
0.0
 10
18.708961
 20
-22.074639
 30
0.0
 10
18.865299
 20
-22.164900
 30
0.0
 10
18.980975
 20
-22.177001
 30
0.0
 10
19.039230
 20
-22.183095
 30
0.0
 11
18.606237
 21
-21.933108
 31
0.0
 11
18.718496
 21
-22.066670
 31
0.0
 11
18.867433
 21
-22.152657
 31
0.0
 11
19.039230
 21
-22.183095
 31
0.0
  0
SPLINE
  5
134
100
AcDbEntity
  8
0
 62
7
100
AcDbSpline
 70
0
 71
3
 72
10
 73
6
 74
4
 40
0.000000
 40
0.000000
 40
0.000000
 40
0.000000
 40
0.174487
 40
0.346476
 40
0.520962
 40
0.520962
 40
0.520962
 40
0.520962
 10
18.606237
 20
-21.933108
 30
0.0
 10
18.571831
 20
-21.885700
 30
0.0
 10
18.503512
 20
-21.791561
 30
0.0
 10
18.347163
 20
-21.701290
 30
0.0
 10
18.231477
 20
-21.689190
 30
0.0
 10
18.173217
 20
-21.683096
 30
0.0
 11
18.606237
 21
-21.933108
 31
0.0
 11
18.493974
 21
-21.799531
 31
0.0
 11
18.345029
 21
-21.713535
 31
0.0
 11
18.173217
 21
-21.683096
 31
0.0
  0
SPLINE
  5
135
100
AcDbEntity
  8
0
 62
7
100
AcDbSpline
 70
0
 71
3
 72
10
 73
6
 74
4
 40
0.000000
 40
0.000000
 40
0.000000
 40
0.000000
 40
0.261387
 40
0.515023
 40
0.776410
 40
0.776410
 40
0.776410
 40
0.776410
 10
8.113217
 20
-37.303131
 30
0.0
 10
8.126988
 20
-37.390726
 30
0.0
 10
8.154120
 20
-37.563318
 30
0.0
 10
8.353018
 20
-37.762166
 30
0.0
 10
8.525618
 20
-37.789255
 30
0.0
 10
8.613216
 20
-37.803003
 30
0.0
 11
8.113217
 21
-37.303131
 31
0.0
 11
8.181524
 21
-37.555435
 31
0.0
 11
8.360895
 21
-37.734760
 31
0.0
 11
8.613216
 21
-37.803003
 31
0.0
  0
SPLINE
  5
136
100
AcDbEntity
  8
0
 62
7
100
AcDbSpline
 70
0
 71
3
 72
10
 73
6
 74
4
 40
0.000000
 40
0.000000
 40
0.000000
 40
0.000000
 40
0.174478
 40
0.346459
 40
0.520937
 40
0.520937
 40
0.520937
 40
0.520937
 10
13.673201
 20
-21.683096
 30
0.0
 10
13.614944
 20
-21.689192
 30
0.0
 10
13.499265
 20
-21.701297
 30
0.0
 10
13.342926
 20
-21.791568
 30
0.0
 10
13.274611
 20
-21.885702
 30
0.0
 10
13.240207
 20
-21.933108
 30
0.0
 11
13.673201
 21
-21.683096
 31
0.0
 11
13.501399
 21
-21.713540
 31
0.0
 11
13.352463
 21
-21.799537
 31
0.0
 11
13.240207
 21
-21.933108
 31
0.0
  0
SPLINE
  5
137
100
AcDbEntity
  8
0
 62
7
100
AcDbSpline
 70
0
 71
3
 72
13
 73
9
 74
7
 40
0.000000
 40
0.000000
 40
0.000000
 40
0.000000
 40
0.130887
 40
0.260691
 40
0.391578
 40
0.522466
 40
0.652270
 40
0.783157
 40
0.783157
 40
0.783157
 40
0.783157
 10
23.733201
 20
-22.683094
 30
0.0
 10
23.729868
 20
-22.639338
 30
0.0
 10
23.723229
 20
-22.552187
 30
0.0
 10
23.670767
 20
-22.430266
 30
0.0
 10
23.590950
 20
-22.325346
 30
0.0
 10
23.486030
 20
-22.245529
 30
0.0
 10
23.364110
 20
-22.193067
 30
0.0
 10
23.276959
 20
-22.186428
 30
0.0
 10
23.233202
 20
-22.183095
 30
0.0
 11
23.733201
 21
-22.683094
 31
0.0
 11
23.716071
 21
-22.553333
 31
0.0
 11
23.666397
 21
-22.433409
 31
0.0
 11
23.586755
 21
-22.329541
 31
0.0
 11
23.482887
 21
-22.249899
 31
0.0
 11
23.362964
 21
-22.200225
 31
0.0
 11
23.233202
 21
-22.183095
 31
0.0
  0
SPLINE
  5
138
100
AcDbEntity
  8
0
 62
7
100
AcDbSpline
 70
0
 71
3
 72
10
 73
6
 74
4
 40
0.000000
 40
0.000000
 40
0.000000
 40
0.000000
 40
0.261387
 40
0.515023
 40
0.776410
 40
0.776410
 40
0.776410
 40
0.776410
 10
23.233202
 20
-37.803003
 30
0.0
 10
23.320801
 20
-37.789255
 30
0.0
 10
23.493400
 20
-37.762166
 30
0.0
 10
23.692299
 20
-37.563318
 30
0.0
 10
23.719431
 20
-37.390726
 30
0.0
 10
23.733201
 20
-37.303131
 30
0.0
 11
23.233202
 21
-37.803003
 31
0.0
 11
23.485524
 21
-37.734760
 31
0.0
 11
23.664894
 21
-37.555435
 31
0.0
 11
23.733201
 21
-37.303131
 31
0.0
  0
SPLINE
  5
139
100
AcDbEntity
  8
0
 62
7
100
AcDbSpline
 70
0
 71
3
 72
10
 73
6
 74
4
 40
0.000000
 40
0.000000
 40
0.000000
 40
0.000000
 40
0.174482
 40
0.346466
 40
0.520948
 40
0.520948
 40
0.520948
 40
0.520948
 10
12.807188
 20
-22.183095
 30
0.0
 10
12.865446
 20
-22.177003
 30
0.0
 10
12.981129
 20
-22.164907
 30
0.0
 10
13.137477
 20
-22.074646
 30
0.0
 10
13.205800
 20
-21.980514
 30
0.0
 10
13.240207
 20
-21.933108
 30
0.0
 11
12.807188
 21
-22.183095
 31
0.0
 11
12.978995
 21
-22.152663
 31
0.0
 11
13.127941
 21
-22.066675
 31
0.0
 11
13.240207
 21
-21.933108
 31
0.0
  0
LWPOLYLINE
  5
13a
100
AcDbEntity
  8
0
 62
7
100
AcDbPolyline
 90
2
 70
0
 10
138.407140
 20
-4.561515
 30
0.0
 10
120.406160
 20
-4.561515
 30
0.0
  0
LWPOLYLINE
  5
13b
100
AcDbEntity
  8
0
 62
7
100
AcDbPolyline
 90
2
 70
0
 10
19.037300
 20
-22.181495
 30
0.0
 10
23.230840
 20
-22.181495
 30
0.0
  0
LWPOLYLINE
  5
13c
100
AcDbEntity
  8
0
 62
7
100
AcDbPolyline
 90
2
 70
0
 10
13.672820
 20
-21.681115
 30
0.0
 10
18.171160
 20
-21.681115
 30
0.0
  0
LWPOLYLINE
  5
13d
100
AcDbEntity
  8
0
 62
7
100
AcDbPolyline
 90
2
 70
0
 10
23.230840
 20
-37.802495
 30
0.0
 10
8.613140
 20
-37.802495
 30
0.0
  0
LWPOLYLINE
  5
13e
100
AcDbEntity
  8
0
 62
7
100
AcDbPolyline
 90
2
 70
0
 10
23.731220
 20
-22.681875
 30
0.0
 10
23.731220
 20
-37.302115
 30
0.0
  0
LWPOLYLINE
  5
13f
100
AcDbEntity
  8
0
 62
7
100
AcDbPolyline
 90
2
 70
0
 10
8.613140
 20
-22.181495
 30
0.0
 10
12.806680
 20
-22.181495
 30
0.0
  0
SPLINE
  5
140
100
AcDbEntity
  8
0
 62
7
100
AcDbSpline
 70
0
 71
3
 72
13
 73
9
 74
7
 40
0.000000
 40
0.000000
 40
0.000000
 40
0.000000
 40
0.130887
 40
0.260691
 40
0.391578
 40
0.522466
 40
0.652270
 40
0.783157
 40
0.783157
 40
0.783157
 40
0.783157
 10
8.613216
 20
-22.183095
 30
0.0
 10
8.569460
 20
-22.186428
 30
0.0
 10
8.482309
 20
-22.193067
 30
0.0
 10
8.360388
 20
-22.245529
 30
0.0
 10
8.255468
 20
-22.325346
 30
0.0
 10
8.175651
 20
-22.430266
 30
0.0
 10
8.123189
 20
-22.552187
 30
0.0
 10
8.116550
 20
-22.639338
 30
0.0
 10
8.113217
 20
-22.683094
 30
0.0
 11
8.613216
 21
-22.183095
 31
0.0
 11
8.483455
 21
-22.200225
 31
0.0
 11
8.363532
 21
-22.249899
 31
0.0
 11
8.259664
 21
-22.329541
 31
0.0
 11
8.180021
 21
-22.433409
 31
0.0
 11
8.130347
 21
-22.553333
 31
0.0
 11
8.113217
 21
-22.683094
 31
0.0
  0
SPLINE
  5
141
100
AcDbEntity
  8
0
 62
7
100
AcDbSpline
 70
0
 71
3
 72
10
 73
6
 74
4
 40
0.000000
 40
0.000000
 40
0.000000
 40
0.000000
 40
0.174489
 40
0.346480
 40
0.520969
 40
0.520969
 40
0.520969
 40
0.520969
 10
139.017756
 20
-68.943403
 30
0.0
 10
139.076018
 20
-68.937320
 30
0.0
 10
139.191707
 20
-68.925242
 30
0.0
 10
139.348075
 20
-68.834998
 30
0.0
 10
139.416411
 20
-68.740870
 30
0.0
 10
139.450826
 20
-68.693467
 30
0.0
 11
139.017756
 21
-68.943403
 31
0.0
 11
139.189575
 21
-68.912996
 31
0.0
 11
139.338539
 21
-68.827025
 31
0.0
 11
139.450826
 21
-68.693467
 31
0.0
  0
SPLINE
  5
142
100
AcDbEntity
  8
0
 62
7
100
AcDbSpline
 70
0
 71
3
 72
10
 73
6
 74
4
 40
0.000000
 40
0.000000
 40
0.000000
 40
0.000000
 40
0.174538
 40
0.346576
 40
0.521114
 40
0.521114
 40
0.521114
 40
0.521114
 10
139.017756
 20
-68.943403
 30
0.0
 10
138.959480
 20
-68.949506
 30
0.0
 10
138.843762
 20
-68.961625
 30
0.0
 10
138.687387
 20
-69.051965
 30
0.0
 10
138.619084
 20
-69.146157
 30
0.0
 10
138.584686
 20
-69.193593
 30
0.0
 11
139.017756
 21
-68.943403
 31
0.0
 11
138.845899
 21
-68.973877
 31
0.0
 11
138.696933
 21
-69.059937
 31
0.0
 11
138.584686
 21
-69.193593
 31
0.0
  0
SPLINE
  5
143
100
AcDbEntity
  8
0
 62
7
100
AcDbSpline
 70
0
 71
3
 72
13
 73
9
 74
7
 40
0.000000
 40
0.000000
 40
0.000000
 40
0.000000
 40
0.130893
 40
0.260703
 40
0.391597
 40
0.522490
 40
0.652300
 40
0.783194
 40
0.783194
 40
0.783194
 40
0.783194
 10
147.082002
 20
-85.715785
 30
0.0
 10
147.121567
 20
-85.734772
 30
0.0
 10
147.200370
 20
-85.772590
 30
0.0
 10
147.332196
 20
-85.788097
 30
0.0
 10
147.462972
 20
-85.771412
 30
0.0
 10
147.584552
 20
-85.720433
 30
0.0
 10
147.690937
 20
-85.641054
 30
0.0
 10
147.740249
 20
-85.568885
 30
0.0
 10
147.765008
 20
-85.532651
 30
0.0
 11
147.082002
 21
-85.715785
 31
0.0
 11
147.202956
 21
-85.765816
 31
0.0
 11
147.331658
 21
-85.782741
 31
0.0
 11
147.461435
 21
-85.765681
 31
0.0
 11
147.582338
 21
-85.715526
 31
0.0
 11
147.685309
 21
-85.636483
 31
0.0
 11
147.765008
 21
-85.532651
 31
0.0
  0
SPLINE
  5
144
100
AcDbEntity
  8
0
 62
7
100
AcDbSpline
 70
0
 71
3
 72
10
 73
6
 74
4
 40
0.000000
 40
0.000000
 40
0.000000
 40
0.000000
 40
0.174433
 40
0.346371
 40
0.520804
 40
0.520804
 40
0.520804
 40
0.520804
 10
136.334754
 20
-73.090715
 30
0.0
 10
136.310915
 20
-73.144202
 30
0.0
 10
136.263578
 20
-73.250412
 30
0.0
 10
136.263578
 20
-73.430890
 30
0.0
 10
136.310915
 20
-73.537100
 30
0.0
 10
136.334754
 20
-73.590587
 30
0.0
 11
136.334754
 21
-73.090715
 31
0.0
 11
136.275242
 21
-73.254682
 31
0.0
 11
136.275242
 21
-73.426620
 31
0.0
 11
136.334754
 21
-73.590587
 31
0.0
  0
SPLINE
  5
145
100
AcDbEntity
  8
0
 62
7
100
AcDbSpline
 70
0
 71
3
 72
13
 73
9
 74
7
 40
0.000000
 40
0.000000
 40
0.000000
 40
0.000000
 40
0.130893
 40
0.260703
 40
0.391597
 40
0.522490
 40
0.652300
 40
0.783194
 40
0.783194
 40
0.783194
 40
0.783194
 10
142.230602
 20
-64.878387
 30
0.0
 10
142.191037
 20
-64.859400
 30
0.0
 10
142.112234
 20
-64.821582
 30
0.0
 10
141.980408
 20
-64.806075
 30
0.0
 10
141.849632
 20
-64.822760
 30
0.0
 10
141.728052
 20
-64.873739
 30
0.0
 10
141.621667
 20
-64.953117
 30
0.0
 10
141.572355
 20
-65.025286
 30
0.0
 10
141.547596
 20
-65.061521
 30
0.0
 11
142.230602
 21
-64.878387
 31
0.0
 11
142.109648
 21
-64.828356
 31
0.0
 11
141.980946
 21
-64.811431
 31
0.0
 11
141.851169
 21
-64.828491
 31
0.0
 11
141.730266
 21
-64.878646
 31
0.0
 11
141.627295
 21
-64.957689
 31
0.0
 11
141.547596
 21
-65.061521
 31
0.0
  0
SPLINE
  5
146
100
AcDbEntity
  8
0
 62
7
100
AcDbSpline
 70
0
 71
3
 72
13
 73
9
 74
7
 40
0.000000
 40
0.000000
 40
0.000000
 40
0.000000
 40
0.130893
 40
0.260703
 40
0.391597
 40
0.522490
 40
0.652300
 40
0.783194
 40
0.783194
 40
0.783194
 40
0.783194
 10
155.075128
 20
-72.871513
 30
0.0
 10
155.094115
 20
-72.831948
 30
0.0
 10
155.131933
 20
-72.753144
 30
0.0
 10
155.147440
 20
-72.621318
 30
0.0
 10
155.130755
 20
-72.490543
 30
0.0
 10
155.079776
 20
-72.368963
 30
0.0
 10
155.000397
 20
-72.262578
 30
0.0
 10
154.928228
 20
-72.213266
 30
0.0
 10
154.891994
 20
-72.188507
 30
0.0
 11
155.075128
 21
-72.871513
 31
0.0
 11
155.125159
 21
-72.750559
 31
0.0
 11
155.142084
 21
-72.621856
 31
0.0
 11
155.125024
 21
-72.492080
 31
0.0
 11
155.074869
 21
-72.371176
 31
0.0
 11
154.995826
 21
-72.268206
 31
0.0
 11
154.891994
 21
-72.188507
 31
0.0
  0
SPLINE
  5
147
100
AcDbEntity
  8
0
 62
7
100
AcDbSpline
 70
0
 71
3
 72
10
 73
6
 74
4
 40
0.000000
 40
0.000000
 40
0.000000
 40
0.000000
 40
0.174531
 40
0.346562
 40
0.521092
 40
0.521092
 40
0.521092
 40
0.521092
 10
136.334754
 20
-74.090713
 30
0.0
 10
136.358619
 20
-74.037201
 30
0.0
 10
136.406008
 20
-73.930943
 30
0.0
 10
136.406008
 20
-73.750357
 30
0.0
 10
136.358619
 20
-73.644099
 30
0.0
 10
136.334754
 20
-73.590587
 30
0.0
 11
136.334754
 21
-74.090713
 31
0.0
 11
136.394331
 21
-73.926666
 31
0.0
 11
136.394331
 21
-73.754634
 31
0.0
 11
136.334754
 21
-73.590587
 31
0.0
  0
LWPOLYLINE
  5
148
100
AcDbEntity
  8
0
 62
7
100
AcDbPolyline
 90
2
 70
0
 10
8.112760
 20
-37.302115
 30
0.0
 10
8.112760
 20
-22.681875
 30
0.0
  0
LWPOLYLINE
  5
149
100
AcDbEntity
  8
0
 62
7
100
AcDbPolyline
 90
2
 70
0
 10
139.448540
 20
-68.691435
 30
0.0
 10
141.546580
 20
-65.059235
 30
0.0
  0
LWPOLYLINE
  5
14a
100
AcDbEntity
  8
0
 62
7
100
AcDbPolyline
 90
2
 70
0
 10
136.334500
 20
-73.088175
 30
0.0
 10
138.582400
 20
-69.191815
 30
0.0
  0
LWPOLYLINE
  5
14b
100
AcDbEntity
  8
0
 62
7
100
AcDbPolyline
 90
2
 70
0
 10
155.074620
 20
-72.869735
 30
0.0
 10
147.764500
 20
-85.531635
 30
0.0
  0
LWPOLYLINE
  5
14c
100
AcDbEntity
  8
0
 62
7
100
AcDbPolyline
 90
2
 70
0
 10
142.229840
 20
-64.876355
 30
0.0
 10
154.891740
 20
-72.186475
 30
0.0
  0
LWPOLYLINE
  5
14d
100
AcDbEntity
  8
0
 62
7
100
AcDbPolyline
 90
2
 70
0
 10
134.236460
 20
-77.721135
 30
0.0
 10
136.334500
 20
-74.088935
 30
0.0
  0
SPLINE
  5
14e
100
AcDbEntity
  8
0
 62
7
100
AcDbSpline
 70
0
 71
3
 72
10
 73
6
 74
4
 40
0.000000
 40
0.000000
 40
0.000000
 40
0.000000
 40
0.261411
 40
0.515069
 40
0.776479
 40
0.776479
 40
0.776479
 40
0.776479
 10
134.237730
 20
-77.722659
 30
0.0
 10
134.205825
 20
-77.805400
 30
0.0
 10
134.142961
 20
-77.968427
 30
0.0
 10
134.215713
 20
-78.240134
 30
0.0
 10
134.351629
 20
-78.349937
 30
0.0
 10
134.420610
 20
-78.405665
 30
0.0
 11
134.237730
 21
-77.722659
 31
0.0
 11
134.170638
 21
-77.975313
 31
0.0
 11
134.236246
 21
-78.220340
 31
0.0
 11
134.420610
 21
-78.405665
 31
0.0
  0
SPLINE
  5
14f
100
AcDbEntity
  8
0
 62
7
100
AcDbSpline
 70
0
 71
3
 72
10
 73
6
 74
4
 40
0.000000
 40
0.000000
 40
0.000000
 40
0.000000
 40
0.174490
 40
0.346483
 40
0.520973
 40
0.520973
 40
0.520973
 40
0.520973
 10
127.076962
 20
-64.462843
 30
0.0
 10
127.097926
 20
-64.517542
 30
0.0
 10
127.139554
 20
-64.626157
 30
0.0
 10
127.267216
 20
-64.753819
 30
0.0
 10
127.375831
 20
-64.795447
 30
0.0
 10
127.430530
 20
-64.816411
 30
0.0
 11
127.076962
 21
-64.462843
 31
0.0
 11
127.150829
 21
-64.620926
 31
0.0
 11
127.272447
 21
-64.742543
 31
0.0
 11
127.430530
 21
-64.816411
 31
0.0
  0
SPLINE
  5
150
100
AcDbEntity
  8
0
 62
7
100
AcDbSpline
 70
0
 71
3
 72
10
 73
6
 74
4
 40
0.000000
 40
0.000000
 40
0.000000
 40
0.000000
 40
0.174490
 40
0.346483
 40
0.520973
 40
0.520973
 40
0.520973
 40
0.520973
 10
127.076962
 20
-64.462843
 30
0.0
 10
127.055998
 20
-64.408144
 30
0.0
 10
127.014370
 20
-64.299529
 30
0.0
 10
126.886708
 20
-64.171867
 30
0.0
 10
126.778093
 20
-64.130239
 30
0.0
 10
126.723394
 20
-64.109275
 30
0.0
 11
127.076962
 21
-64.462843
 31
0.0
 11
127.003095
 21
-64.304759
 31
0.0
 11
126.881477
 21
-64.183142
 31
0.0
 11
126.723394
 21
-64.109275
 31
0.0
  0
SPLINE
  5
151
100
AcDbEntity
  8
0
 62
7
100
AcDbSpline
 70
0
 71
3
 72
13
 73
9
 74
7
 40
0.000000
 40
0.000000
 40
0.000000
 40
0.000000
 40
0.130894
 40
0.260704
 40
0.391598
 40
0.522491
 40
0.652302
 40
0.783195
 40
0.783195
 40
0.783195
 40
0.783195
 10
112.963452
 20
-76.593375
 30
0.0
 10
112.955345
 20
-76.636505
 30
0.0
 10
112.939197
 20
-76.722408
 30
0.0
 10
112.958316
 20
-76.853760
 30
0.0
 10
113.008259
 20
-76.975769
 30
0.0
 10
113.088951
 20
-77.080026
 30
0.0
 10
113.193146
 20
-77.162258
 30
0.0
 10
113.275614
 20
-77.191225
 30
0.0
 10
113.317020
 20
-77.205769
 30
0.0
 11
112.963452
 21
-76.593375
 31
0.0
 11
112.946409
 21
-76.723154
 31
0.0
 11
112.963351
 21
-76.851854
 31
0.0
 11
113.013398
 21
-76.972802
 31
0.0
 11
113.093119
 21
-77.076618
 31
0.0
 11
113.196106
 21
-77.155639
 31
0.0
 11
113.317020
 21
-77.205769
 31
0.0
  0
SPLINE
  5
152
100
AcDbEntity
  8
0
 62
7
100
AcDbSpline
 70
0
 71
3
 72
10
 73
6
 74
4
 40
0.000000
 40
0.000000
 40
0.000000
 40
0.000000
 40
0.174429
 40
0.346364
 40
0.520793
 40
0.520793
 40
0.520793
 40
0.520793
 10
122.376692
 20
-62.944685
 30
0.0
 10
122.318860
 20
-62.935492
 30
0.0
 10
122.204023
 20
-62.917237
 30
0.0
 10
122.029690
 20
-62.963916
 30
0.0
 10
121.939339
 20
-63.037110
 30
0.0
 10
121.893838
 20
-63.073971
 30
0.0
 11
122.376692
 21
-62.944685
 31
0.0
 11
122.202915
 21
-62.929609
 31
0.0
 11
122.036831
 21
-62.974078
 31
0.0
 11
121.893838
 21
-63.073971
 31
0.0
  0
SPLINE
  5
153
100
AcDbEntity
  8
0
 62
7
100
AcDbSpline
 70
0
 71
3
 72
10
 73
6
 74
4
 40
0.000000
 40
0.000000
 40
0.000000
 40
0.000000
 40
0.261339
 40
0.514931
 40
0.776270
 40
0.776270
 40
0.776270
 40
0.776270
 10
131.835144
 20
-66.514147
 30
0.0
 10
131.844497
 20
-66.425988
 30
0.0
 10
131.862926
 20
-66.252283
 30
0.0
 10
131.722287
 20
-66.008791
 30
0.0
 10
131.562614
 20
-65.937957
 30
0.0
 10
131.481576
 20
-65.902007
 30
0.0
 11
131.835144
 21
-66.514147
 31
0.0
 11
131.834427
 21
-66.252809
 31
0.0
 11
131.707590
 21
-66.033215
 31
0.0
 11
131.481576
 21
-65.902007
 31
0.0
  0
SPLINE
  5
154
100
AcDbEntity
  8
0
 62
7
100
AcDbSpline
 70
0
 71
3
 72
13
 73
9
 74
7
 40
0.000000
 40
0.000000
 40
0.000000
 40
0.000000
 40
0.130894
 40
0.260704
 40
0.391598
 40
0.522491
 40
0.652302
 40
0.783195
 40
0.783195
 40
0.783195
 40
0.783195
 10
127.438912
 20
-80.989607
 30
0.0
 10
127.482042
 20
-80.997714
 30
0.0
 10
127.567945
 20
-81.013862
 30
0.0
 10
127.699297
 20
-80.994743
 30
0.0
 10
127.821306
 20
-80.944800
 30
0.0
 10
127.925563
 20
-80.864107
 30
0.0
 10
128.007795
 20
-80.759913
 30
0.0
 10
128.036762
 20
-80.677444
 30
0.0
 10
128.051306
 20
-80.636039
 30
0.0
 11
127.438912
 21
-80.989607
 31
0.0
 11
127.568691
 21
-81.006650
 31
0.0
 11
127.697391
 21
-80.989708
 31
0.0
 11
127.818339
 21
-80.939661
 31
0.0
 11
127.922155
 21
-80.859940
 31
0.0
 11
128.001177
 21
-80.756953
 31
0.0
 11
128.051306
 21
-80.636039
 31
0.0
  0
SPLINE
  5
155
100
AcDbEntity
  8
0
 62
7
100
AcDbSpline
 70
0
 71
3
 72
10
 73
6
 74
4
 40
0.000000
 40
0.000000
 40
0.000000
 40
0.000000
 40
0.174455
 40
0.346413
 40
0.520868
 40
0.520868
 40
0.520868
 40
0.520868
 10
121.410984
 20
-63.203511
 30
0.0
 10
121.468828
 20
-63.212680
 30
0.0
 10
121.583690
 20
-63.230888
 30
0.0
 10
121.758027
 20
-63.184117
 30
0.0
 10
121.848351
 20
-63.110862
 30
0.0
 10
121.893838
 20
-63.073971
 30
0.0
 11
121.410984
 21
-63.203511
 31
0.0
 11
121.584792
 21
-63.218513
 31
0.0
 11
121.750878
 21
-63.173955
 31
0.0
 11
121.893838
 21
-63.073971
 31
0.0
  0
LWPOLYLINE
  5
156
100
AcDbEntity
  8
0
 62
7
100
AcDbPolyline
 90
2
 70
0
 10
147.081240
 20
-85.714515
 30
0.0
 10
134.419340
 20
-78.404395
 30
0.0
  0
LWPOLYLINE
  5
157
100
AcDbEntity
  8
0
 62
7
100
AcDbPolyline
 90
2
 70
0
 10
127.429260
 20
-64.815395
 30
0.0
 10
131.480560
 20
-65.899975
 30
0.0
  0
LWPOLYLINE
  5
158
100
AcDbEntity
  8
0
 62
7
100
AcDbPolyline
 90
2
 70
0
 10
122.374660
 20
-62.943415
 30
0.0
 10
126.723140
 20
-64.109275
 30
0.0
  0
LWPOLYLINE
  5
159
100
AcDbEntity
  8
0
 62
7
100
AcDbPolyline
 90
2
 70
0
 10
127.436880
 20
-80.987575
 30
0.0
 10
113.317020
 20
-77.205515
 30
0.0
  0
LWPOLYLINE
  5
15a
100
AcDbEntity
  8
0
 62
7
100
AcDbPolyline
 90
2
 70
0
 10
131.833620
 20
-66.512115
 30
0.0
 10
128.049020
 20
-80.634515
 30
0.0
  0
LWPOLYLINE
  5
15b
100
AcDbEntity
  8
0
 62
7
100
AcDbPolyline
 90
2
 70
0
 10
117.358160
 20
-62.117915
 30
0.0
 10
121.409460
 20
-63.202495
 30
0.0
  0
SPLINE
  5
15c
100
AcDbEntity
  8
0
 62
7
100
AcDbSpline
 70
0
 71
3
 72
13
 73
9
 74
7
 40
0.000000
 40
0.000000
 40
0.000000
 40
0.000000
 40
0.130894
 40
0.260704
 40
0.391598
 40
0.522491
 40
0.652302
 40
0.783195
 40
0.783195
 40
0.783195
 40
0.783195
 10
117.359938
 20
-62.117915
 30
0.0
 10
117.316808
 20
-62.109808
 30
0.0
 10
117.230905
 20
-62.093660
 30
0.0
 10
117.099553
 20
-62.112779
 30
0.0
 10
116.977544
 20
-62.162722
 30
0.0
 10
116.873287
 20
-62.243414
 30
0.0
 10
116.791055
 20
-62.347609
 30
0.0
 10
116.762088
 20
-62.430077
 30
0.0
 10
116.747544
 20
-62.471483
 30
0.0
 11
117.359938
 21
-62.117915
 31
0.0
 11
117.230159
 21
-62.100872
 31
0.0
 11
117.101459
 21
-62.117814
 31
0.0
 11
116.980511
 21
-62.167861
 31
0.0
 11
116.876695
 21
-62.247582
 31
0.0
 11
116.797673
 21
-62.350569
 31
0.0
 11
116.747544
 21
-62.471483
 31
0.0
  0
SPLINE
  5
15d
100
AcDbEntity
  8
0
 62
7
100
AcDbSpline
 70
0
 71
3
 72
10
 73
6
 74
4
 40
0.000000
 40
0.000000
 40
0.000000
 40
0.000000
 40
0.174489
 40
0.346480
 40
0.520969
 40
0.520969
 40
0.520969
 40
0.520969
 10
104.119934
 20
-60.785177
 30
0.0
 10
104.154349
 20
-60.832580
 30
0.0
 10
104.222685
 20
-60.926708
 30
0.0
 10
104.379053
 20
-61.016952
 30
0.0
 10
104.494742
 20
-61.029030
 30
0.0
 10
104.553004
 20
-61.035113
 30
0.0
 11
104.119934
 21
-60.785177
 31
0.0
 11
104.232221
 21
-60.918735
 31
0.0
 11
104.381185
 21
-61.004706
 31
0.0
 11
104.553004
 21
-61.035113
 31
0.0
  0
SPLINE
  5
15e
100
AcDbEntity
  8
0
 62
7
100
AcDbSpline
 70
0
 71
3
 72
10
 73
6
 74
4
 40
0.000000
 40
0.000000
 40
0.000000
 40
0.000000
 40
0.174489
 40
0.346480
 40
0.520969
 40
0.520969
 40
0.520969
 40
0.520969
 10
104.119934
 20
-60.785177
 30
0.0
 10
104.085519
 20
-60.737774
 30
0.0
 10
104.017183
 20
-60.643646
 30
0.0
 10
103.860815
 20
-60.553402
 30
0.0
 10
103.745126
 20
-60.541324
 30
0.0
 10
103.686864
 20
-60.535241
 30
0.0
 11
104.119934
 21
-60.785177
 31
0.0
 11
104.007647
 21
-60.651618
 31
0.0
 11
103.858683
 21
-60.565648
 31
0.0
 11
103.686864
 21
-60.535241
 31
0.0
  0
SPLINE
  5
15f
100
AcDbEntity
  8
0
 62
7
100
AcDbSpline
 70
0
 71
3
 72
10
 73
6
 74
4
 40
0.000000
 40
0.000000
 40
0.000000
 40
0.000000
 40
0.261345
 40
0.514943
 40
0.776288
 40
0.776288
 40
0.776288
 40
0.776288
 10
93.626940
 20
-76.155225
 30
0.0
 10
93.640706
 20
-76.242805
 30
0.0
 10
93.667829
 20
-76.415371
 30
0.0
 10
93.866666
 20
-76.614207
 30
0.0
 10
94.039231
 20
-76.641331
 30
0.0
 10
94.126812
 20
-76.655097
 30
0.0
 11
93.626940
 21
-76.155225
 31
0.0
 11
93.695225
 21
-76.407491
 31
0.0
 11
93.874546
 21
-76.586812
 31
0.0
 11
94.126812
 21
-76.655097
 31
0.0
  0
SPLINE
  5
160
100
AcDbEntity
  8
0
 62
7
100
AcDbSpline
 70
0
 71
3
 72
10
 73
6
 74
4
 40
0.000000
 40
0.000000
 40
0.000000
 40
0.000000
 40
0.174489
 40
0.346480
 40
0.520969
 40
0.520969
 40
0.520969
 40
0.520969
 10
99.187000
 20
-60.535241
 30
0.0
 10
99.128738
 20
-60.541324
 30
0.0
 10
99.013049
 20
-60.553402
 30
0.0
 10
98.856681
 20
-60.643646
 30
0.0
 10
98.788345
 20
-60.737774
 30
0.0
 10
98.753930
 20
-60.785177
 30
0.0
 11
99.187000
 21
-60.535241
 31
0.0
 11
99.015181
 21
-60.565648
 31
0.0
 11
98.866217
 21
-60.651618
 31
0.0
 11
98.753930
 21
-60.785177
 31
0.0
  0
SPLINE
  5
161
100
AcDbEntity
  8
0
 62
7
100
AcDbSpline
 70
0
 71
3
 72
13
 73
9
 74
7
 40
0.000000
 40
0.000000
 40
0.000000
 40
0.000000
 40
0.130887
 40
0.260691
 40
0.391578
 40
0.522466
 40
0.652270
 40
0.783157
 40
0.783157
 40
0.783157
 40
0.783157
 10
109.246924
 20
-61.535239
 30
0.0
 10
109.243602
 20
-61.491482
 30
0.0
 10
109.236985
 20
-61.404329
 30
0.0
 10
109.184554
 20
-61.282395
 30
0.0
 10
109.104764
 20
-61.177455
 30
0.0
 10
108.999864
 20
-61.097611
 30
0.0
 10
108.877957
 20
-61.045118
 30
0.0
 10
108.790808
 20
-61.038457
 30
0.0
 10
108.747052
 20
-61.035113
 30
0.0
 11
109.246924
 21
-61.535239
 31
0.0
 11
109.229827
 21
-61.405473
 31
0.0
 11
109.180183
 21
-61.285537
 31
0.0
 11
109.100567
 21
-61.181649
 31
0.0
 11
108.996720
 21
-61.101980
 31
0.0
 11
108.876809
 21
-61.052276
 31
0.0
 11
108.747052
 21
-61.035113
 31
0.0
  0
SPLINE
  5
162
100
AcDbEntity
  8
0
 62
7
100
AcDbSpline
 70
0
 71
3
 72
10
 73
6
 74
4
 40
0.000000
 40
0.000000
 40
0.000000
 40
0.000000
 40
0.261345
 40
0.514943
 40
0.776288
 40
0.776288
 40
0.776288
 40
0.776288
 10
108.747052
 20
-76.655097
 30
0.0
 10
108.834633
 20
-76.641331
 30
0.0
 10
109.007198
 20
-76.614207
 30
0.0
 10
109.206035
 20
-76.415371
 30
0.0
 10
109.233158
 20
-76.242805
 30
0.0
 10
109.246924
 20
-76.155225
 30
0.0
 11
108.747052
 21
-76.655097
 31
0.0
 11
108.999318
 21
-76.586812
 31
0.0
 11
109.178639
 21
-76.407491
 31
0.0
 11
109.246924
 21
-76.155225
 31
0.0
  0
SPLINE
  5
163
100
AcDbEntity
  8
0
 62
7
100
AcDbSpline
 70
0
 71
3
 72
10
 73
6
 74
4
 40
0.000000
 40
0.000000
 40
0.000000
 40
0.000000
 40
0.174489
 40
0.346480
 40
0.520969
 40
0.520969
 40
0.520969
 40
0.520969
 10
98.320860
 20
-61.035113
 30
0.0
 10
98.379122
 20
-61.029030
 30
0.0
 10
98.494811
 20
-61.016952
 30
0.0
 10
98.651179
 20
-60.926708
 30
0.0
 10
98.719515
 20
-60.832580
 30
0.0
 10
98.753930
 20
-60.785177
 30
0.0
 11
98.320860
 21
-61.035113
 31
0.0
 11
98.492679
 21
-61.004706
 31
0.0
 11
98.641643
 21
-60.918735
 31
0.0
 11
98.753930
 21
-60.785177
 31
0.0
  0
LWPOLYLINE
  5
164
100
AcDbEntity
  8
0
 62
7
100
AcDbPolyline
 90
2
 70
0
 10
112.961420
 20
-76.590835
 30
0.0
 10
116.746020
 20
-62.470975
 30
0.0
  0
LWPOLYLINE
  5
165
100
AcDbEntity
  8
0
 62
7
100
AcDbPolyline
 90
2
 70
0
 10
104.551480
 20
-61.033335
 30
0.0
 10
108.745020
 20
-61.033335
 30
0.0
  0
LWPOLYLINE
  5
166
100
AcDbEntity
  8
0
 62
7
100
AcDbPolyline
 90
2
 70
0
 10
99.184460
 20
-60.532955
 30
0.0
 10
103.685340
 20
-60.532955
 30
0.0
  0
LWPOLYLINE
  5
167
100
AcDbEntity
  8
0
 62
7
100
AcDbPolyline
 90
2
 70
0
 10
108.745020
 20
-76.654335
 30
0.0
 10
94.124780
 20
-76.654335
 30
0.0
  0
LWPOLYLINE
  5
168
100
AcDbEntity
  8
0
 62
7
100
AcDbPolyline
 90
2
 70
0
 10
109.245400
 20
-61.533715
 30
0.0
 10
109.245400
 20
-76.153955
 30
0.0
  0
LWPOLYLINE
  5
169
100
AcDbEntity
  8
0
 62
7
100
AcDbPolyline
 90
2
 70
0
 10
94.124780
 20
-61.033335
 30
0.0
 10
98.320860
 20
-61.033335
 30
0.0
  0
SPLINE
  5
16a
100
AcDbEntity
  8
0
 62
7
100
AcDbSpline
 70
0
 71
3
 72
13
 73
9
 74
7
 40
0.000000
 40
0.000000
 40
0.000000
 40
0.000000
 40
0.130887
 40
0.260691
 40
0.391578
 40
0.522466
 40
0.652270
 40
0.783157
 40
0.783157
 40
0.783157
 40
0.783157
 10
94.126812
 20
-61.035113
 30
0.0
 10
94.083056
 20
-61.038457
 30
0.0
 10
93.995907
 20
-61.045118
 30
0.0
 10
93.874000
 20
-61.097611
 30
0.0
 10
93.769100
 20
-61.177455
 30
0.0
 10
93.689310
 20
-61.282395
 30
0.0
 10
93.636879
 20
-61.404329
 30
0.0
 10
93.630262
 20
-61.491482
 30
0.0
 10
93.626940
 20
-61.535239
 30
0.0
 11
94.126812
 21
-61.035113
 31
0.0
 11
93.997055
 21
-61.052276
 31
0.0
 11
93.877144
 21
-61.101980
 31
0.0
 11
93.773297
 21
-61.181649
 31
0.0
 11
93.693681
 21
-61.285537
 31
0.0
 11
93.644037
 21
-61.405473
 31
0.0
 11
93.626940
 21
-61.535239
 31
0.0
  0
SPLINE
  5
16b
100
AcDbEntity
  8
0
 62
7
100
AcDbSpline
 70
0
 71
3
 72
10
 73
6
 74
4
 40
0.000000
 40
0.000000
 40
0.000000
 40
0.000000
 40
0.174489
 40
0.346480
 40
0.520969
 40
0.520969
 40
0.520969
 40
0.520969
 10
132.599938
 20
-43.500223
 30
0.0
 10
132.634353
 20
-43.547626
 30
0.0
 10
132.702689
 20
-43.641754
 30
0.0
 10
132.859057
 20
-43.731998
 30
0.0
 10
132.974746
 20
-43.744076
 30
0.0
 10
133.033008
 20
-43.750159
 30
0.0
 11
132.599938
 21
-43.500223
 31
0.0
 11
132.712225
 21
-43.633781
 31
0.0
 11
132.861189
 21
-43.719752
 31
0.0
 11
133.033008
 21
-43.750159
 31
0.0
  0
SPLINE
  5
16c
100
AcDbEntity
  8
0
 62
7
100
AcDbSpline
 70
0
 71
3
 72
10
 73
6
 74
4
 40
0.000000
 40
0.000000
 40
0.000000
 40
0.000000
 40
0.174538
 40
0.346576
 40
0.521114
 40
0.521114
 40
0.521114
 40
0.521114
 10
132.599938
 20
-43.500223
 30
0.0
 10
132.565540
 20
-43.452787
 30
0.0
 10
132.497237
 20
-43.358595
 30
0.0
 10
132.340862
 20
-43.268255
 30
0.0
 10
132.225144
 20
-43.256136
 30
0.0
 10
132.166868
 20
-43.250033
 30
0.0
 11
132.599938
 21
-43.500223
 31
0.0
 11
132.487691
 21
-43.366567
 31
0.0
 11
132.338725
 21
-43.280507
 31
0.0
 11
132.166868
 21
-43.250033
 31
0.0
  0
SPLINE
  5
16d
100
AcDbEntity
  8
0
 62
7
100
AcDbSpline
 70
0
 71
3
 72
13
 73
9
 74
7
 40
0.000000
 40
0.000000
 40
0.000000
 40
0.000000
 40
0.130887
 40
0.260691
 40
0.391578
 40
0.522466
 40
0.652270
 40
0.783157
 40
0.783157
 40
0.783157
 40
0.783157
 10
122.106944
 20
-58.870017
 30
0.0
 10
122.110266
 20
-58.913774
 30
0.0
 10
122.116883
 20
-59.000927
 30
0.0
 10
122.169314
 20
-59.122861
 30
0.0
 10
122.249104
 20
-59.227801
 30
0.0
 10
122.354004
 20
-59.307644
 30
0.0
 10
122.475911
 20
-59.360138
 30
0.0
 10
122.563060
 20
-59.366799
 30
0.0
 10
122.606816
 20
-59.370143
 30
0.0
 11
122.106944
 21
-58.870017
 31
0.0
 11
122.124041
 21
-58.999783
 31
0.0
 11
122.173685
 21
-59.119719
 31
0.0
 11
122.253301
 21
-59.223607
 31
0.0
 11
122.357148
 21
-59.303275
 31
0.0
 11
122.477059
 21
-59.352980
 31
0.0
 11
122.606816
 21
-59.370143
 31
0.0
  0
SPLINE
  5
16e
100
AcDbEntity
  8
0
 62
7
100
AcDbSpline
 70
0
 71
3
 72
10
 73
6
 74
4
 40
0.000000
 40
0.000000
 40
0.000000
 40
0.000000
 40
0.174538
 40
0.346576
 40
0.521114
 40
0.521114
 40
0.521114
 40
0.521114
 10
127.667004
 20
-43.250033
 30
0.0
 10
127.608728
 20
-43.256136
 30
0.0
 10
127.493010
 20
-43.268255
 30
0.0
 10
127.336635
 20
-43.358595
 30
0.0
 10
127.268332
 20
-43.452787
 30
0.0
 10
127.233934
 20
-43.500223
 30
0.0
 11
127.667004
 21
-43.250033
 31
0.0
 11
127.495147
 21
-43.280507
 31
0.0
 11
127.346181
 21
-43.366567
 31
0.0
 11
127.233934
 21
-43.500223
 31
0.0
  0
SPLINE
  5
16f
100
AcDbEntity
  8
0
 62
7
100
AcDbSpline
 70
0
 71
3
 72
10
 73
6
 74
4
 40
0.000000
 40
0.000000
 40
0.000000
 40
0.000000
 40
0.261345
 40
0.514943
 40
0.776288
 40
0.776288
 40
0.776288
 40
0.776288
 10
137.726928
 20
-44.250031
 30
0.0
 10
137.713162
 20
-44.162450
 30
0.0
 10
137.686039
 20
-43.989885
 30
0.0
 10
137.487202
 20
-43.791048
 30
0.0
 10
137.314637
 20
-43.763925
 30
0.0
 10
137.227056
 20
-43.750159
 30
0.0
 11
137.726928
 21
-44.250031
 31
0.0
 11
137.658643
 21
-43.997764
 31
0.0
 11
137.479322
 21
-43.818444
 31
0.0
 11
137.227056
 21
-43.750159
 31
0.0
  0
SPLINE
  5
170
100
AcDbEntity
  8
0
 62
7
100
AcDbSpline
 70
0
 71
3
 72
13
 73
9
 74
7
 40
0.000000
 40
0.000000
 40
0.000000
 40
0.000000
 40
0.130887
 40
0.260691
 40
0.391578
 40
0.522466
 40
0.652270
 40
0.783157
 40
0.783157
 40
0.783157
 40
0.783157
 10
137.227056
 20
-59.370143
 30
0.0
 10
137.270812
 20
-59.366799
 30
0.0
 10
137.357961
 20
-59.360138
 30
0.0
 10
137.479868
 20
-59.307644
 30
0.0
 10
137.584768
 20
-59.227801
 30
0.0
 10
137.664558
 20
-59.122861
 30
0.0
 10
137.716989
 20
-59.000927
 30
0.0
 10
137.723606
 20
-58.913774
 30
0.0
 10
137.726928
 20
-58.870017
 30
0.0
 11
137.227056
 21
-59.370143
 31
0.0
 11
137.356813
 21
-59.352980
 31
0.0
 11
137.476724
 21
-59.303275
 31
0.0
 11
137.580571
 21
-59.223607
 31
0.0
 11
137.660187
 21
-59.119719
 31
0.0
 11
137.709831
 21
-58.999783
 31
0.0
 11
137.726928
 21
-58.870017
 31
0.0
  0
SPLINE
  5
171
100
AcDbEntity
  8
0
 62
7
100
AcDbSpline
 70
0
 71
3
 72
10
 73
6
 74
4
 40
0.000000
 40
0.000000
 40
0.000000
 40
0.000000
 40
0.174489
 40
0.346480
 40
0.520969
 40
0.520969
 40
0.520969
 40
0.520969
 10
126.800864
 20
-43.750159
 30
0.0
 10
126.859126
 20
-43.744076
 30
0.0
 10
126.974815
 20
-43.731998
 30
0.0
 10
127.131183
 20
-43.641754
 30
0.0
 10
127.199519
 20
-43.547626
 30
0.0
 10
127.233934
 20
-43.500223
 30
0.0
 11
126.800864
 21
-43.750159
 31
0.0
 11
126.972683
 21
-43.719752
 31
0.0
 11
127.121647
 21
-43.633781
 31
0.0
 11
127.233934
 21
-43.500223
 31
0.0
  0
LWPOLYLINE
  5
172
100
AcDbEntity
  8
0
 62
7
100
AcDbPolyline
 90
2
 70
0
 10
93.624400
 20
-76.153955
 30
0.0
 10
93.624400
 20
-61.533715
 30
0.0
  0
LWPOLYLINE
  5
173
100
AcDbEntity
  8
0
 62
7
100
AcDbPolyline
 90
2
 70
0
 10
133.032500
 20
-43.748635
 30
0.0
 10
137.226040
 20
-43.748635
 30
0.0
  0
LWPOLYLINE
  5
174
100
AcDbEntity
  8
0
 62
7
100
AcDbPolyline
 90
2
 70
0
 10
127.665480
 20
-43.248255
 30
0.0
 10
132.166360
 20
-43.248255
 30
0.0
  0
LWPOLYLINE
  5
175
100
AcDbEntity
  8
0
 62
7
100
AcDbPolyline
 90
2
 70
0
 10
137.226040
 20
-59.369635
 30
0.0
 10
122.605800
 20
-59.369635
 30
0.0
  0
LWPOLYLINE
  5
176
100
AcDbEntity
  8
0
 62
7
100
AcDbPolyline
 90
2
 70
0
 10
137.726420
 20
-44.249015
 30
0.0
 10
137.726420
 20
-58.869255
 30
0.0
  0
LWPOLYLINE
  5
177
100
AcDbEntity
  8
0
 62
7
100
AcDbPolyline
 90
2
 70
0
 10
122.605800
 20
-43.748635
 30
0.0
 10
126.799340
 20
-43.748635
 30
0.0
  0
SPLINE
  5
178
100
AcDbEntity
  8
0
 62
7
100
AcDbSpline
 70
0
 71
3
 72
10
 73
6
 74
4
 40
0.000000
 40
0.000000
 40
0.000000
 40
0.000000
 40
0.261345
 40
0.514943
 40
0.776288
 40
0.776288
 40
0.776288
 40
0.776288
 10
122.606816
 20
-43.750159
 30
0.0
 10
122.519235
 20
-43.763925
 30
0.0
 10
122.346670
 20
-43.791048
 30
0.0
 10
122.147833
 20
-43.989885
 30
0.0
 10
122.120710
 20
-44.162450
 30
0.0
 10
122.106944
 20
-44.250031
 30
0.0
 11
122.606816
 21
-43.750159
 31
0.0
 11
122.354550
 21
-43.818444
 31
0.0
 11
122.175229
 21
-43.997764
 31
0.0
 11
122.106944
 21
-44.250031
 31
0.0
  0
SPLINE
  5
179
100
AcDbEntity
  8
0
 62
7
100
AcDbSpline
 70
0
 71
3
 72
10
 73
6
 74
4
 40
0.000000
 40
0.000000
 40
0.000000
 40
0.000000
 40
0.174504
 40
0.346509
 40
0.521013
 40
0.521013
 40
0.521013
 40
0.521013
 10
132.599938
 20
-5.500121
 30
0.0
 10
132.634348
 20
-5.547534
 30
0.0
 10
132.702674
 20
-5.641681
 30
0.0
 10
132.859044
 20
-5.731954
 30
0.0
 10
132.974742
 20
-5.744044
 30
0.0
 10
133.033008
 20
-5.750133
 30
0.0
 11
132.599938
 21
-5.500121
 31
0.0
 11
132.712213
 21
-5.633709
 31
0.0
 11
132.861178
 21
-5.719706
 31
0.0
 11
133.033008
 21
-5.750133
 31
0.0
  0
SPLINE
  5
17a
100
AcDbEntity
  8
0
 62
7
100
AcDbSpline
 70
0
 71
3
 72
10
 73
6
 74
4
 40
0.000000
 40
0.000000
 40
0.000000
 40
0.000000
 40
0.174499
 40
0.346499
 40
0.520998
 40
0.520998
 40
0.520998
 40
0.520998
 10
132.599938
 20
-5.500121
 30
0.0
 10
132.565527
 20
-5.452711
 30
0.0
 10
132.497197
 20
-5.358571
 30
0.0
 10
132.340828
 20
-5.268308
 30
0.0
 10
132.225133
 20
-5.256221
 30
0.0
 10
132.166868
 20
-5.250134
 30
0.0
 11
132.599938
 21
-5.500121
 31
0.0
 11
132.487659
 21
-5.366543
 31
0.0
 11
132.338695
 21
-5.280555
 31
0.0
 11
132.166868
 21
-5.250134
 31
0.0
  0
SPLINE
  5
17b
100
AcDbEntity
  8
0
 62
7
100
AcDbSpline
 70
0
 71
3
 72
10
 73
6
 74
4
 40
0.000000
 40
0.000000
 40
0.000000
 40
0.000000
 40
0.261387
 40
0.515023
 40
0.776410
 40
0.776410
 40
0.776410
 40
0.776410
 10
122.106944
 20
-20.870118
 30
0.0
 10
122.120692
 20
-20.957717
 30
0.0
 10
122.147781
 20
-21.130316
 30
0.0
 10
122.346629
 20
-21.329215
 30
0.0
 10
122.519221
 20
-21.356347
 30
0.0
 10
122.606816
 20
-21.370117
 30
0.0
 11
122.106944
 21
-20.870118
 31
0.0
 11
122.175187
 21
-21.122440
 31
0.0
 11
122.354512
 21
-21.301811
 31
0.0
 11
122.606816
 21
-21.370117
 31
0.0
  0
SPLINE
  5
17c
100
AcDbEntity
  8
0
 62
7
100
AcDbSpline
 70
0
 71
3
 72
10
 73
6
 74
4
 40
0.000000
 40
0.000000
 40
0.000000
 40
0.000000
 40
0.174499
 40
0.346499
 40
0.520998
 40
0.520998
 40
0.520998
 40
0.520998
 10
127.667004
 20
-5.250134
 30
0.0
 10
127.608739
 20
-5.256221
 30
0.0
 10
127.493044
 20
-5.268308
 30
0.0
 10
127.336675
 20
-5.358571
 30
0.0
 10
127.268345
 20
-5.452711
 30
0.0
 10
127.233934
 20
-5.500121
 30
0.0
 11
127.667004
 21
-5.250134
 31
0.0
 11
127.495177
 21
-5.280555
 31
0.0
 11
127.346213
 21
-5.366543
 31
0.0
 11
127.233934
 21
-5.500121
 31
0.0
  0
SPLINE
  5
17d
100
AcDbEntity
  8
0
 62
7
100
AcDbSpline
 70
0
 71
3
 72
10
 73
6
 74
4
 40
0.000000
 40
0.000000
 40
0.000000
 40
0.000000
 40
0.261387
 40
0.515023
 40
0.776410
 40
0.776410
 40
0.776410
 40
0.776410
 10
137.726928
 20
-6.250132
 30
0.0
 10
137.713180
 20
-6.162534
 30
0.0
 10
137.686091
 20
-5.989934
 30
0.0
 10
137.487243
 20
-5.791036
 30
0.0
 10
137.314651
 20
-5.763904
 30
0.0
 10
137.227056
 20
-5.750133
 30
0.0
 11
137.726928
 21
-6.250132
 31
0.0
 11
137.658685
 21
-5.997811
 31
0.0
 11
137.479360
 21
-5.818440
 31
0.0
 11
137.227056
 21
-5.750133
 31
0.0
  0
SPLINE
  5
17e
100
AcDbEntity
  8
0
 62
7
100
AcDbSpline
 70
0
 71
3
 72
10
 73
6
 74
4
 40
0.000000
 40
0.000000
 40
0.000000
 40
0.000000
 40
0.261387
 40
0.515023
 40
0.776410
 40
0.776410
 40
0.776410
 40
0.776410
 10
137.227056
 20
-21.370117
 30
0.0
 10
137.314651
 20
-21.356347
 30
0.0
 10
137.487243
 20
-21.329215
 30
0.0
 10
137.686091
 20
-21.130316
 30
0.0
 10
137.713180
 20
-20.957717
 30
0.0
 10
137.726928
 20
-20.870118
 30
0.0
 11
137.227056
 21
-21.370117
 31
0.0
 11
137.479360
 21
-21.301811
 31
0.0
 11
137.658685
 21
-21.122440
 31
0.0
 11
137.726928
 21
-20.870118
 31
0.0
  0
SPLINE
  5
17f
100
AcDbEntity
  8
0
 62
7
100
AcDbSpline
 70
0
 71
3
 72
10
 73
6
 74
4
 40
0.000000
 40
0.000000
 40
0.000000
 40
0.000000
 40
0.174504
 40
0.346509
 40
0.521013
 40
0.521013
 40
0.521013
 40
0.521013
 10
126.800864
 20
-5.750133
 30
0.0
 10
126.859130
 20
-5.744044
 30
0.0
 10
126.974828
 20
-5.731954
 30
0.0
 10
127.131198
 20
-5.641681
 30
0.0
 10
127.199524
 20
-5.547534
 30
0.0
 10
127.233934
 20
-5.500121
 30
0.0
 11
126.800864
 21
-5.750133
 31
0.0
 11
126.972694
 21
-5.719706
 31
0.0
 11
127.121659
 21
-5.633709
 31
0.0
 11
127.233934
 21
-5.500121
 31
0.0
  0
LWPOLYLINE
  5
180
100
AcDbEntity
  8
0
 62
7
100
AcDbPolyline
 90
2
 70
0
 10
122.105420
 20
-58.869255
 30
0.0
 10
122.105420
 20
-44.249015
 30
0.0
  0
LWPOLYLINE
  5
181
100
AcDbEntity
  8
0
 62
7
100
AcDbPolyline
 90
2
 70
0
 10
133.032500
 20
-5.747695
 30
0.0
 10
137.226040
 20
-5.747695
 30
0.0
  0
LWPOLYLINE
  5
182
100
AcDbEntity
  8
0
 62
7
100
AcDbPolyline
 90
2
 70
0
 10
127.665480
 20
-5.249855
 30
0.0
 10
132.166360
 20
-5.249855
 30
0.0
  0
LWPOLYLINE
  5
183
100
AcDbEntity
  8
0
 62
7
100
AcDbPolyline
 90
2
 70
0
 10
137.226040
 20
-21.368695
 30
0.0
 10
122.605800
 20
-21.368695
 30
0.0
  0
LWPOLYLINE
  5
184
100
AcDbEntity
  8
0
 62
7
100
AcDbPolyline
 90
2
 70
0
 10
137.726420
 20
-6.248075
 30
0.0
 10
137.726420
 20
-20.868315
 30
0.0
  0
LWPOLYLINE
  5
185
100
AcDbEntity
  8
0
 62
7
100
AcDbPolyline
 90
2
 70
0
 10
122.605800
 20
-5.747695
 30
0.0
 10
126.799340
 20
-5.747695
 30
0.0
  0
SPLINE
  5
186
100
AcDbEntity
  8
0
 62
7
100
AcDbSpline
 70
0
 71
3
 72
10
 73
6
 74
4
 40
0.000000
 40
0.000000
 40
0.000000
 40
0.000000
 40
0.261387
 40
0.515023
 40
0.776410
 40
0.776410
 40
0.776410
 40
0.776410
 10
122.606816
 20
-5.750133
 30
0.0
 10
122.519221
 20
-5.763904
 30
0.0
 10
122.346629
 20
-5.791036
 30
0.0
 10
122.147781
 20
-5.989934
 30
0.0
 10
122.120692
 20
-6.162534
 30
0.0
 10
122.106944
 20
-6.250132
 30
0.0
 11
122.606816
 21
-5.750133
 31
0.0
 11
122.354512
 21
-5.818440
 31
0.0
 11
122.175187
 21
-5.997811
 31
0.0
 11
122.106944
 21
-6.250132
 31
0.0
  0
SPLINE
  5
187
100
AcDbEntity
  8
0
 62
7
100
AcDbSpline
 70
0
 71
3
 72
10
 73
6
 74
4
 40
0.000000
 40
0.000000
 40
0.000000
 40
0.000000
 40
0.174513
 40
0.346528
 40
0.521041
 40
0.521041
 40
0.521041
 40
0.521041
 10
132.599938
 20
-24.500134
 30
0.0
 10
132.634344
 20
-24.547553
 30
0.0
 10
132.702664
 20
-24.641713
 30
0.0
 10
132.859035
 20
-24.732005
 30
0.0
 10
132.974739
 20
-24.744104
 30
0.0
 10
133.033008
 20
-24.750197
 30
0.0
 11
132.599938
 21
-24.500134
 31
0.0
 11
132.712205
 21
-24.633741
 31
0.0
 11
132.861170
 21
-24.719756
 31
0.0
 11
133.033008
 21
-24.750197
 31
0.0
  0
SPLINE
  5
188
100
AcDbEntity
  8
0
 62
7
100
AcDbSpline
 70
0
 71
3
 72
10
 73
6
 74
4
 40
0.000000
 40
0.000000
 40
0.000000
 40
0.000000
 40
0.174504
 40
0.346509
 40
0.521013
 40
0.521013
 40
0.521013
 40
0.521013
 10
132.599938
 20
-24.500134
 30
0.0
 10
132.565528
 20
-24.452721
 30
0.0
 10
132.497202
 20
-24.358574
 30
0.0
 10
132.340832
 20
-24.268301
 30
0.0
 10
132.225134
 20
-24.256211
 30
0.0
 10
132.166868
 20
-24.250122
 30
0.0
 11
132.599938
 21
-24.500134
 31
0.0
 11
132.487663
 21
-24.366546
 31
0.0
 11
132.338698
 21
-24.280549
 31
0.0
 11
132.166868
 21
-24.250122
 31
0.0
  0
SPLINE
  5
189
100
AcDbEntity
  8
0
 62
7
100
AcDbSpline
 70
0
 71
3
 72
13
 73
9
 74
7
 40
0.000000
 40
0.000000
 40
0.000000
 40
0.000000
 40
0.130887
 40
0.260691
 40
0.391578
 40
0.522466
 40
0.652270
 40
0.783157
 40
0.783157
 40
0.783157
 40
0.783157
 10
122.106944
 20
-39.870055
 30
0.0
 10
122.110266
 20
-39.913812
 30
0.0
 10
122.116883
 20
-40.000965
 30
0.0
 10
122.169314
 20
-40.122899
 30
0.0
 10
122.249104
 20
-40.227839
 30
0.0
 10
122.354004
 20
-40.307682
 30
0.0
 10
122.475911
 20
-40.360176
 30
0.0
 10
122.563060
 20
-40.366837
 30
0.0
 10
122.606816
 20
-40.370181
 30
0.0
 11
122.106944
 21
-39.870055
 31
0.0
 11
122.124041
 21
-39.999821
 31
0.0
 11
122.173685
 21
-40.119757
 31
0.0
 11
122.253301
 21
-40.223645
 31
0.0
 11
122.357148
 21
-40.303313
 31
0.0
 11
122.477059
 21
-40.353018
 31
0.0
 11
122.606816
 21
-40.370181
 31
0.0
  0
SPLINE
  5
18a
100
AcDbEntity
  8
0
 62
7
100
AcDbSpline
 70
0
 71
3
 72
10
 73
6
 74
4
 40
0.000000
 40
0.000000
 40
0.000000
 40
0.000000
 40
0.174504
 40
0.346509
 40
0.521013
 40
0.521013
 40
0.521013
 40
0.521013
 10
127.667004
 20
-24.250122
 30
0.0
 10
127.608738
 20
-24.256211
 30
0.0
 10
127.493040
 20
-24.268301
 30
0.0
 10
127.336670
 20
-24.358574
 30
0.0
 10
127.268344
 20
-24.452721
 30
0.0
 10
127.233934
 20
-24.500134
 30
0.0
 11
127.667004
 21
-24.250122
 31
0.0
 11
127.495174
 21
-24.280549
 31
0.0
 11
127.346209
 21
-24.366546
 31
0.0
 11
127.233934
 21
-24.500134
 31
0.0
  0
SPLINE
  5
18b
100
AcDbEntity
  8
0
 62
7
100
AcDbSpline
 70
0
 71
3
 72
10
 73
6
 74
4
 40
0.000000
 40
0.000000
 40
0.000000
 40
0.000000
 40
0.261345
 40
0.514943
 40
0.776288
 40
0.776288
 40
0.776288
 40
0.776288
 10
137.726928
 20
-25.250069
 30
0.0
 10
137.713162
 20
-25.162488
 30
0.0
 10
137.686039
 20
-24.989923
 30
0.0
 10
137.487202
 20
-24.791086
 30
0.0
 10
137.314637
 20
-24.763963
 30
0.0
 10
137.227056
 20
-24.750197
 30
0.0
 11
137.726928
 21
-25.250069
 31
0.0
 11
137.658643
 21
-24.997802
 31
0.0
 11
137.479322
 21
-24.818482
 31
0.0
 11
137.227056
 21
-24.750197
 31
0.0
  0
SPLINE
  5
18c
100
AcDbEntity
  8
0
 62
7
100
AcDbSpline
 70
0
 71
3
 72
13
 73
9
 74
7
 40
0.000000
 40
0.000000
 40
0.000000
 40
0.000000
 40
0.130887
 40
0.260691
 40
0.391578
 40
0.522466
 40
0.652270
 40
0.783157
 40
0.783157
 40
0.783157
 40
0.783157
 10
137.227056
 20
-40.370181
 30
0.0
 10
137.270812
 20
-40.366837
 30
0.0
 10
137.357961
 20
-40.360176
 30
0.0
 10
137.479868
 20
-40.307682
 30
0.0
 10
137.584768
 20
-40.227839
 30
0.0
 10
137.664558
 20
-40.122899
 30
0.0
 10
137.716989
 20
-40.000965
 30
0.0
 10
137.723606
 20
-39.913812
 30
0.0
 10
137.726928
 20
-39.870055
 30
0.0
 11
137.227056
 21
-40.370181
 31
0.0
 11
137.356813
 21
-40.353018
 31
0.0
 11
137.476724
 21
-40.303313
 31
0.0
 11
137.580571
 21
-40.223645
 31
0.0
 11
137.660187
 21
-40.119757
 31
0.0
 11
137.709831
 21
-39.999821
 31
0.0
 11
137.726928
 21
-39.870055
 31
0.0
  0
SPLINE
  5
18d
100
AcDbEntity
  8
0
 62
7
100
AcDbSpline
 70
0
 71
3
 72
10
 73
6
 74
4
 40
0.000000
 40
0.000000
 40
0.000000
 40
0.000000
 40
0.174513
 40
0.346528
 40
0.521041
 40
0.521041
 40
0.521041
 40
0.521041
 10
126.800864
 20
-24.750197
 30
0.0
 10
126.859133
 20
-24.744104
 30
0.0
 10
126.974837
 20
-24.732005
 30
0.0
 10
127.131208
 20
-24.641713
 30
0.0
 10
127.199528
 20
-24.547553
 30
0.0
 10
127.233934
 20
-24.500134
 30
0.0
 11
126.800864
 21
-24.750197
 31
0.0
 11
126.972702
 21
-24.719756
 31
0.0
 11
127.121667
 21
-24.633741
 31
0.0
 11
127.233934
 21
-24.500134
 31
0.0
  0
LWPOLYLINE
  5
18e
100
AcDbEntity
  8
0
 62
7
100
AcDbPolyline
 90
2
 70
0
 10
122.105420
 20
-20.868315
 30
0.0
 10
122.105420
 20
-6.248075
 30
0.0
  0
LWPOLYLINE
  5
18f
100
AcDbEntity
  8
0
 62
7
100
AcDbPolyline
 90
2
 70
0
 10
133.032500
 20
-24.749435
 30
0.0
 10
137.226040
 20
-24.749435
 30
0.0
  0
LWPOLYLINE
  5
190
100
AcDbEntity
  8
0
 62
7
100
AcDbPolyline
 90
2
 70
0
 10
127.665480
 20
-24.249055
 30
0.0
 10
132.166360
 20
-24.249055
 30
0.0
  0
LWPOLYLINE
  5
191
100
AcDbEntity
  8
0
 62
7
100
AcDbPolyline
 90
2
 70
0
 10
137.226040
 20
-40.367895
 30
0.0
 10
122.605800
 20
-40.367895
 30
0.0
  0
LWPOLYLINE
  5
192
100
AcDbEntity
  8
0
 62
7
100
AcDbPolyline
 90
2
 70
0
 10
137.726420
 20
-25.249815
 30
0.0
 10
137.726420
 20
-39.870055
 30
0.0
  0
LWPOLYLINE
  5
193
100
AcDbEntity
  8
0
 62
7
100
AcDbPolyline
 90
2
 70
0
 10
122.605800
 20
-24.749435
 30
0.0
 10
126.799340
 20
-24.749435
 30
0.0
  0
SPLINE
  5
194
100
AcDbEntity
  8
0
 62
7
100
AcDbSpline
 70
0
 71
3
 72
10
 73
6
 74
4
 40
0.000000
 40
0.000000
 40
0.000000
 40
0.000000
 40
0.261345
 40
0.514943
 40
0.776288
 40
0.776288
 40
0.776288
 40
0.776288
 10
122.606816
 20
-24.750197
 30
0.0
 10
122.519235
 20
-24.763963
 30
0.0
 10
122.346670
 20
-24.791086
 30
0.0
 10
122.147833
 20
-24.989923
 30
0.0
 10
122.120710
 20
-25.162488
 30
0.0
 10
122.106944
 20
-25.250069
 30
0.0
 11
122.606816
 21
-24.750197
 31
0.0
 11
122.354550
 21
-24.818482
 31
0.0
 11
122.175229
 21
-24.997802
 31
0.0
 11
122.106944
 21
-25.250069
 31
0.0
  0
SPLINE
  5
195
100
AcDbEntity
  8
0
 62
7
100
AcDbSpline
 70
0
 71
3
 72
10
 73
6
 74
4
 40
0.000000
 40
0.000000
 40
0.000000
 40
0.000000
 40
0.174499
 40
0.346499
 40
0.520998
 40
0.520998
 40
0.520998
 40
0.520998
 10
113.599976
 20
-22.125132
 30
0.0
 10
113.634387
 20
-22.172542
 30
0.0
 10
113.702717
 20
-22.266682
 30
0.0
 10
113.859086
 20
-22.356945
 30
0.0
 10
113.974781
 20
-22.369032
 30
0.0
 10
114.033046
 20
-22.375119
 30
0.0
 11
113.599976
 21
-22.125132
 31
0.0
 11
113.712255
 21
-22.258710
 31
0.0
 11
113.861219
 21
-22.344699
 31
0.0
 11
114.033046
 21
-22.375119
 31
0.0
  0
SPLINE
  5
196
100
AcDbEntity
  8
0
 62
7
100
AcDbSpline
 70
0
 71
3
 72
10
 73
6
 74
4
 40
0.000000
 40
0.000000
 40
0.000000
 40
0.000000
 40
0.174504
 40
0.346509
 40
0.521013
 40
0.521013
 40
0.521013
 40
0.521013
 10
113.599976
 20
-22.125132
 30
0.0
 10
113.565566
 20
-22.077719
 30
0.0
 10
113.497240
 20
-21.983572
 30
0.0
 10
113.340870
 20
-21.893300
 30
0.0
 10
113.225172
 20
-21.881209
 30
0.0
 10
113.166906
 20
-21.875120
 30
0.0
 11
113.599976
 21
-22.125132
 31
0.0
 11
113.487701
 21
-21.991544
 31
0.0
 11
113.338736
 21
-21.905547
 31
0.0
 11
113.166906
 21
-21.875120
 31
0.0
  0
SPLINE
  5
197
100
AcDbEntity
  8
0
 62
7
100
AcDbSpline
 70
0
 71
3
 72
10
 73
6
 74
4
 40
0.000000
 40
0.000000
 40
0.000000
 40
0.000000
 40
0.261345
 40
0.514943
 40
0.776288
 40
0.776288
 40
0.776288
 40
0.776288
 10
103.106982
 20
-37.495155
 30
0.0
 10
103.120748
 20
-37.582735
 30
0.0
 10
103.147871
 20
-37.755301
 30
0.0
 10
103.346708
 20
-37.954137
 30
0.0
 10
103.519273
 20
-37.981261
 30
0.0
 10
103.606854
 20
-37.995027
 30
0.0
 11
103.106982
 21
-37.495155
 31
0.0
 11
103.175267
 21
-37.747421
 31
0.0
 11
103.354588
 21
-37.926742
 31
0.0
 11
103.606854
 21
-37.995027
 31
0.0
  0
SPLINE
  5
198
100
AcDbEntity
  8
0
 62
7
100
AcDbSpline
 70
0
 71
3
 72
10
 73
6
 74
4
 40
0.000000
 40
0.000000
 40
0.000000
 40
0.000000
 40
0.174504
 40
0.346509
 40
0.521013
 40
0.521013
 40
0.521013
 40
0.521013
 10
108.667042
 20
-21.875120
 30
0.0
 10
108.608776
 20
-21.881209
 30
0.0
 10
108.493078
 20
-21.893300
 30
0.0
 10
108.336708
 20
-21.983572
 30
0.0
 10
108.268382
 20
-22.077719
 30
0.0
 10
108.233972
 20
-22.125132
 30
0.0
 11
108.667042
 21
-21.875120
 31
0.0
 11
108.495212
 21
-21.905547
 31
0.0
 11
108.346247
 21
-21.991544
 31
0.0
 11
108.233972
 21
-22.125132
 31
0.0
  0
SPLINE
  5
199
100
AcDbEntity
  8
0
 62
7
100
AcDbSpline
 70
0
 71
3
 72
13
 73
9
 74
7
 40
0.000000
 40
0.000000
 40
0.000000
 40
0.000000
 40
0.130908
 40
0.260733
 40
0.391641
 40
0.522550
 40
0.652374
 40
0.783283
 40
0.783283
 40
0.783283
 40
0.783283
 10
118.726966
 20
-22.875118
 30
0.0
 10
118.723632
 20
-22.831354
 30
0.0
 10
118.716991
 20
-22.744189
 30
0.0
 10
118.664512
 20
-22.622252
 30
0.0
 10
118.584671
 20
-22.517323
 30
0.0
 10
118.479722
 20
-22.437509
 30
0.0
 10
118.357771
 20
-22.385061
 30
0.0
 10
118.270604
 20
-22.378442
 30
0.0
 10
118.226840
 20
-22.375119
 30
0.0
 11
118.726966
 21
-22.875118
 31
0.0
 11
118.709830
 21
-22.745336
 31
0.0
 11
118.660141
 21
-22.625397
 31
0.0
 11
118.580475
 21
-22.521520
 31
0.0
 11
118.476578
 21
-22.441881
 31
0.0
 11
118.356626
 21
-22.392222
 31
0.0
 11
118.226840
 21
-22.375119
 31
0.0
  0
SPLINE
  5
19a
100
AcDbEntity
  8
0
 62
7
100
AcDbSpline
 70
0
 71
3
 72
13
 73
9
 74
7
 40
0.000000
 40
0.000000
 40
0.000000
 40
0.000000
 40
0.130887
 40
0.260691
 40
0.391578
 40
0.522466
 40
0.652270
 40
0.783157
 40
0.783157
 40
0.783157
 40
0.783157
 10
118.226840
 20
-37.995027
 30
0.0
 10
118.270597
 20
-37.991705
 30
0.0
 10
118.357750
 20
-37.985088
 30
0.0
 10
118.479684
 20
-37.932657
 30
0.0
 10
118.584624
 20
-37.852867
 30
0.0
 10
118.664468
 20
-37.747967
 30
0.0
 10
118.716961
 20
-37.626060
 30
0.0
 10
118.723622
 20
-37.538911
 30
0.0
 10
118.726966
 20
-37.495155
 30
0.0
 11
118.226840
 21
-37.995027
 31
0.0
 11
118.356606
 21
-37.977930
 31
0.0
 11
118.476542
 21
-37.928286
 31
0.0
 11
118.580430
 21
-37.848670
 31
0.0
 11
118.660099
 21
-37.744823
 31
0.0
 11
118.709803
 21
-37.624912
 31
0.0
 11
118.726966
 21
-37.495155
 31
0.0
  0
SPLINE
  5
19b
100
AcDbEntity
  8
0
 62
7
100
AcDbSpline
 70
0
 71
3
 72
10
 73
6
 74
4
 40
0.000000
 40
0.000000
 40
0.000000
 40
0.000000
 40
0.174499
 40
0.346499
 40
0.520998
 40
0.520998
 40
0.520998
 40
0.520998
 10
107.800902
 20
-22.375119
 30
0.0
 10
107.859167
 20
-22.369032
 30
0.0
 10
107.974862
 20
-22.356945
 30
0.0
 10
108.131231
 20
-22.266682
 30
0.0
 10
108.199561
 20
-22.172542
 30
0.0
 10
108.233972
 20
-22.125132
 30
0.0
 11
107.800902
 21
-22.375119
 31
0.0
 11
107.972729
 21
-22.344699
 31
0.0
 11
108.121693
 21
-22.258710
 31
0.0
 11
108.233972
 21
-22.125132
 31
0.0
  0
LWPOLYLINE
  5
19c
100
AcDbEntity
  8
0
 62
7
100
AcDbPolyline
 90
2
 70
0
 10
122.105420
 20
-39.870055
 30
0.0
 10
122.105420
 20
-25.249815
 30
0.0
  0
LWPOLYLINE
  5
19d
100
AcDbEntity
  8
0
 62
7
100
AcDbPolyline
 90
2
 70
0
 10
114.030760
 20
-22.374535
 30
0.0
 10
118.226840
 20
-22.374535
 30
0.0
  0
LWPOLYLINE
  5
19e
100
AcDbEntity
  8
0
 62
7
100
AcDbPolyline
 90
2
 70
0
 10
108.666280
 20
-21.874155
 30
0.0
 10
113.164620
 20
-21.874155
 30
0.0
  0
LWPOLYLINE
  5
19f
100
AcDbEntity
  8
0
 62
7
100
AcDbPolyline
 90
2
 70
0
 10
118.226840
 20
-37.992995
 30
0.0
 10
103.606600
 20
-37.992995
 30
0.0
  0
LWPOLYLINE
  5
1a0
100
AcDbEntity
  8
0
 62
7
100
AcDbPolyline
 90
2
 70
0
 10
118.724680
 20
-22.874915
 30
0.0
 10
118.724680
 20
-37.492615
 30
0.0
  0
LWPOLYLINE
  5
1a1
100
AcDbEntity
  8
0
 62
7
100
AcDbPolyline
 90
2
 70
0
 10
103.606600
 20
-22.374535
 30
0.0
 10
107.800140
 20
-22.374535
 30
0.0
  0
SPLINE
  5
1a2
100
AcDbEntity
  8
0
 62
7
100
AcDbSpline
 70
0
 71
3
 72
10
 73
6
 74
4
 40
0.000000
 40
0.000000
 40
0.000000
 40
0.000000
 40
0.261387
 40
0.515023
 40
0.776410
 40
0.776410
 40
0.776410
 40
0.776410
 10
103.606854
 20
-22.375119
 30
0.0
 10
103.519259
 20
-22.388889
 30
0.0
 10
103.346667
 20
-22.416022
 30
0.0
 10
103.147819
 20
-22.614920
 30
0.0
 10
103.120730
 20
-22.787520
 30
0.0
 10
103.106982
 20
-22.875118
 30
0.0
 11
103.606854
 21
-22.375119
 31
0.0
 11
103.354550
 21
-22.443426
 31
0.0
 11
103.175225
 21
-22.622797
 31
0.0
 11
103.106982
 21
-22.875118
 31
0.0
  0
SPLINE
  5
1a3
100
AcDbEntity
  8
0
 62
7
100
AcDbSpline
 70
0
 71
3
 72
10
 73
6
 74
4
 40
0.000000
 40
0.000000
 40
0.000000
 40
0.000000
 40
0.174504
 40
0.346509
 40
0.521013
 40
0.521013
 40
0.521013
 40
0.521013
 10
113.599976
 20
-3.125119
 30
0.0
 10
113.634386
 20
-3.172532
 30
0.0
 10
113.702712
 20
-3.266679
 30
0.0
 10
113.859082
 20
-3.356952
 30
0.0
 10
113.974780
 20
-3.369043
 30
0.0
 10
114.033046
 20
-3.375132
 30
0.0
 11
113.599976
 21
-3.125119
 31
0.0
 11
113.712251
 21
-3.258707
 31
0.0
 11
113.861216
 21
-3.344705
 31
0.0
 11
114.033046
 21
-3.375132
 31
0.0
  0
SPLINE
  5
1a4
100
AcDbEntity
  8
0
 62
7
100
AcDbSpline
 70
0
 71
3
 72
10
 73
6
 74
4
 40
0.000000
 40
0.000000
 40
0.000000
 40
0.000000
 40
0.174499
 40
0.346499
 40
0.520998
 40
0.520998
 40
0.520998
 40
0.520998
 10
113.599976
 20
-3.125119
 30
0.0
 10
113.565565
 20
-3.077710
 30
0.0
 10
113.497235
 20
-2.983569
 30
0.0
 10
113.340866
 20
-2.893306
 30
0.0
 10
113.225171
 20
-2.881220
 30
0.0
 10
113.166906
 20
-2.875133
 30
0.0
 11
113.599976
 21
-3.125119
 31
0.0
 11
113.487697
 21
-2.991541
 31
0.0
 11
113.338733
 21
-2.905553
 31
0.0
 11
113.166906
 21
-2.875133
 31
0.0
  0
SPLINE
  5
1a5
100
AcDbEntity
  8
0
 62
7
100
AcDbSpline
 70
0
 71
3
 72
10
 73
6
 74
4
 40
0.000000
 40
0.000000
 40
0.000000
 40
0.000000
 40
0.261387
 40
0.515023
 40
0.776410
 40
0.776410
 40
0.776410
 40
0.776410
 10
103.106982
 20
-18.495117
 30
0.0
 10
103.120730
 20
-18.582715
 30
0.0
 10
103.147819
 20
-18.755315
 30
0.0
 10
103.346667
 20
-18.954213
 30
0.0
 10
103.519259
 20
-18.981345
 30
0.0
 10
103.606854
 20
-18.995116
 30
0.0
 11
103.106982
 21
-18.495117
 31
0.0
 11
103.175225
 21
-18.747438
 31
0.0
 11
103.354550
 21
-18.926809
 31
0.0
 11
103.606854
 21
-18.995116
 31
0.0
  0
SPLINE
  5
1a6
100
AcDbEntity
  8
0
 62
7
100
AcDbSpline
 70
0
 71
3
 72
10
 73
6
 74
4
 40
0.000000
 40
0.000000
 40
0.000000
 40
0.000000
 40
0.174499
 40
0.346499
 40
0.520998
 40
0.520998
 40
0.520998
 40
0.520998
 10
108.667042
 20
-2.875133
 30
0.0
 10
108.608777
 20
-2.881220
 30
0.0
 10
108.493082
 20
-2.893306
 30
0.0
 10
108.336713
 20
-2.983569
 30
0.0
 10
108.268383
 20
-3.077710
 30
0.0
 10
108.233972
 20
-3.125119
 30
0.0
 11
108.667042
 21
-2.875133
 31
0.0
 11
108.495215
 21
-2.905553
 31
0.0
 11
108.346251
 21
-2.991541
 31
0.0
 11
108.233972
 21
-3.125119
 31
0.0
  0
SPLINE
  5
1a7
100
AcDbEntity
  8
0
 62
7
100
AcDbSpline
 70
0
 71
3
 72
13
 73
9
 74
7
 40
0.000000
 40
0.000000
 40
0.000000
 40
0.000000
 40
0.130908
 40
0.260733
 40
0.391641
 40
0.522550
 40
0.652374
 40
0.783283
 40
0.783283
 40
0.783283
 40
0.783283
 10
118.726966
 20
-3.875131
 30
0.0
 10
118.723632
 20
-3.831367
 30
0.0
 10
118.716991
 20
-3.744202
 30
0.0
 10
118.664512
 20
-3.622265
 30
0.0
 10
118.584671
 20
-3.517336
 30
0.0
 10
118.479722
 20
-3.437522
 30
0.0
 10
118.357771
 20
-3.385073
 30
0.0
 10
118.270604
 20
-3.378455
 30
0.0
 10
118.226840
 20
-3.375132
 30
0.0
 11
118.726966
 21
-3.875131
 31
0.0
 11
118.709830
 21
-3.745349
 31
0.0
 11
118.660141
 21
-3.625409
 31
0.0
 11
118.580475
 21
-3.521533
 31
0.0
 11
118.476578
 21
-3.441893
 31
0.0
 11
118.356626
 21
-3.392234
 31
0.0
 11
118.226840
 21
-3.375132
 31
0.0
  0
SPLINE
  5
1a8
100
AcDbEntity
  8
0
 62
7
100
AcDbSpline
 70
0
 71
3
 72
13
 73
9
 74
7
 40
0.000000
 40
0.000000
 40
0.000000
 40
0.000000
 40
0.130908
 40
0.260733
 40
0.391641
 40
0.522550
 40
0.652374
 40
0.783283
 40
0.783283
 40
0.783283
 40
0.783283
 10
118.226840
 20
-18.995116
 30
0.0
 10
118.270604
 20
-18.991793
 30
0.0
 10
118.357771
 20
-18.985174
 30
0.0
 10
118.479722
 20
-18.932726
 30
0.0
 10
118.584671
 20
-18.852912
 30
0.0
 10
118.664512
 20
-18.747983
 30
0.0
 10
118.716991
 20
-18.626045
 30
0.0
 10
118.723632
 20
-18.538880
 30
0.0
 10
118.726966
 20
-18.495117
 30
0.0
 11
118.226840
 21
-18.995116
 31
0.0
 11
118.356626
 21
-18.978013
 31
0.0
 11
118.476578
 21
-18.928354
 31
0.0
 11
118.580475
 21
-18.848714
 31
0.0
 11
118.660141
 21
-18.744838
 31
0.0
 11
118.709830
 21
-18.624899
 31
0.0
 11
118.726966
 21
-18.495117
 31
0.0
  0
SPLINE
  5
1a9
100
AcDbEntity
  8
0
 62
7
100
AcDbSpline
 70
0
 71
3
 72
10
 73
6
 74
4
 40
0.000000
 40
0.000000
 40
0.000000
 40
0.000000
 40
0.174504
 40
0.346509
 40
0.521013
 40
0.521013
 40
0.521013
 40
0.521013
 10
107.800902
 20
-3.375132
 30
0.0
 10
107.859168
 20
-3.369043
 30
0.0
 10
107.974866
 20
-3.356952
 30
0.0
 10
108.131236
 20
-3.266679
 30
0.0
 10
108.199562
 20
-3.172532
 30
0.0
 10
108.233972
 20
-3.125119
 30
0.0
 11
107.800902
 21
-3.375132
 31
0.0
 11
107.972732
 21
-3.344705
 31
0.0
 11
108.121697
 21
-3.258707
 31
0.0
 11
108.233972
 21
-3.125119
 31
0.0
  0
LWPOLYLINE
  5
1aa
100
AcDbEntity
  8
0
 62
7
100
AcDbPolyline
 90
2
 70
0
 10
103.106220
 20
-37.492615
 30
0.0
 10
103.106220
 20
-22.874915
 30
0.0
  0
LWPOLYLINE
  5
1ab
100
AcDbEntity
  8
0
 62
7
100
AcDbPolyline
 90
2
 70
0
 10
114.030760
 20
-3.372795
 30
0.0
 10
118.226840
 20
-3.372795
 30
0.0
  0
LWPOLYLINE
  5
1ac
100
AcDbEntity
  8
0
 62
7
100
AcDbPolyline
 90
2
 70
0
 10
108.666280
 20
-2.874955
 30
0.0
 10
113.164620
 20
-2.874955
 30
0.0
  0
LWPOLYLINE
  5
1ad
100
AcDbEntity
  8
0
 62
7
100
AcDbPolyline
 90
2
 70
0
 10
118.226840
 20
-18.993795
 30
0.0
 10
103.606600
 20
-18.993795
 30
0.0
  0
LWPOLYLINE
  5
1ae
100
AcDbEntity
  8
0
 62
7
100
AcDbPolyline
 90
2
 70
0
 10
118.724680
 20
-3.873175
 30
0.0
 10
118.724680
 20
-18.493415
 30
0.0
  0
LWPOLYLINE
  5
1af
100
AcDbEntity
  8
0
 62
7
100
AcDbPolyline
 90
2
 70
0
 10
103.606600
 20
-3.372795
 30
0.0
 10
107.800140
 20
-3.372795
 30
0.0
  0
SPLINE
  5
1b0
100
AcDbEntity
  8
0
 62
7
100
AcDbSpline
 70
0
 71
3
 72
10
 73
6
 74
4
 40
0.000000
 40
0.000000
 40
0.000000
 40
0.000000
 40
0.261387
 40
0.515023
 40
0.776410
 40
0.776410
 40
0.776410
 40
0.776410
 10
103.606854
 20
-3.375132
 30
0.0
 10
103.519259
 20
-3.388902
 30
0.0
 10
103.346667
 20
-3.416034
 30
0.0
 10
103.147819
 20
-3.614933
 30
0.0
 10
103.120730
 20
-3.787532
 30
0.0
 10
103.106982
 20
-3.875131
 30
0.0
 11
103.606854
 21
-3.375132
 31
0.0
 11
103.354550
 21
-3.443438
 31
0.0
 11
103.175225
 21
-3.622809
 31
0.0
 11
103.106982
 21
-3.875131
 31
0.0
  0
SPLINE
  5
1b1
100
AcDbEntity
  8
0
 62
7
100
AcDbSpline
 70
0
 71
3
 72
10
 73
6
 74
4
 40
0.000000
 40
0.000000
 40
0.000000
 40
0.000000
 40
0.174489
 40
0.346480
 40
0.520969
 40
0.520969
 40
0.520969
 40
0.520969
 10
113.599976
 20
-41.125069
 30
0.0
 10
113.634391
 20
-41.172472
 30
0.0
 10
113.702727
 20
-41.266600
 30
0.0
 10
113.859095
 20
-41.356844
 30
0.0
 10
113.974784
 20
-41.368922
 30
0.0
 10
114.033046
 20
-41.375005
 30
0.0
 11
113.599976
 21
-41.125069
 31
0.0
 11
113.712263
 21
-41.258627
 31
0.0
 11
113.861227
 21
-41.344598
 31
0.0
 11
114.033046
 21
-41.375005
 31
0.0
  0
SPLINE
  5
1b2
100
AcDbEntity
  8
0
 62
7
100
AcDbSpline
 70
0
 71
3
 72
10
 73
6
 74
4
 40
0.000000
 40
0.000000
 40
0.000000
 40
0.000000
 40
0.174489
 40
0.346480
 40
0.520969
 40
0.520969
 40
0.520969
 40
0.520969
 10
113.599976
 20
-41.125069
 30
0.0
 10
113.565561
 20
-41.077666
 30
0.0
 10
113.497225
 20
-40.983538
 30
0.0
 10
113.340857
 20
-40.893294
 30
0.0
 10
113.225168
 20
-40.881216
 30
0.0
 10
113.166906
 20
-40.875133
 30
0.0
 11
113.599976
 21
-41.125069
 31
0.0
 11
113.487689
 21
-40.991510
 31
0.0
 11
113.338725
 21
-40.905540
 31
0.0
 11
113.166906
 21
-40.875133
 31
0.0
  0
SPLINE
  5
1b3
100
AcDbEntity
  8
0
 62
7
100
AcDbSpline
 70
0
 71
3
 72
13
 73
9
 74
7
 40
0.000000
 40
0.000000
 40
0.000000
 40
0.000000
 40
0.130887
 40
0.260691
 40
0.391578
 40
0.522466
 40
0.652270
 40
0.783157
 40
0.783157
 40
0.783157
 40
0.783157
 10
103.106982
 20
-56.495117
 30
0.0
 10
103.110304
 20
-56.538874
 30
0.0
 10
103.116921
 20
-56.626027
 30
0.0
 10
103.169352
 20
-56.747961
 30
0.0
 10
103.249142
 20
-56.852901
 30
0.0
 10
103.354042
 20
-56.932744
 30
0.0
 10
103.475949
 20
-56.985238
 30
0.0
 10
103.563098
 20
-56.991899
 30
0.0
 10
103.606854
 20
-56.995243
 30
0.0
 11
103.106982
 21
-56.495117
 31
0.0
 11
103.124079
 21
-56.624883
 31
0.0
 11
103.173723
 21
-56.744819
 31
0.0
 11
103.253339
 21
-56.848707
 31
0.0
 11
103.357186
 21
-56.928375
 31
0.0
 11
103.477097
 21
-56.978080
 31
0.0
 11
103.606854
 21
-56.995243
 31
0.0
  0
SPLINE
  5
1b4
100
AcDbEntity
  8
0
 62
7
100
AcDbSpline
 70
0
 71
3
 72
10
 73
6
 74
4
 40
0.000000
 40
0.000000
 40
0.000000
 40
0.000000
 40
0.174489
 40
0.346480
 40
0.520969
 40
0.520969
 40
0.520969
 40
0.520969
 10
108.667042
 20
-40.875133
 30
0.0
 10
108.608780
 20
-40.881216
 30
0.0
 10
108.493091
 20
-40.893294
 30
0.0
 10
108.336723
 20
-40.983538
 30
0.0
 10
108.268387
 20
-41.077666
 30
0.0
 10
108.233972
 20
-41.125069
 30
0.0
 11
108.667042
 21
-40.875133
 31
0.0
 11
108.495223
 21
-40.905540
 31
0.0
 11
108.346259
 21
-40.991510
 31
0.0
 11
108.233972
 21
-41.125069
 31
0.0
  0
SPLINE
  5
1b5
100
AcDbEntity
  8
0
 62
7
100
AcDbSpline
 70
0
 71
3
 72
13
 73
9
 74
7
 40
0.000000
 40
0.000000
 40
0.000000
 40
0.000000
 40
0.130929
 40
0.260775
 40
0.391704
 40
0.522634
 40
0.652479
 40
0.783409
 40
0.783409
 40
0.783409
 40
0.783409
 10
118.726966
 20
-41.875131
 30
0.0
 10
118.723642
 20
-41.831359
 30
0.0
 10
118.717021
 20
-41.744179
 30
0.0
 10
118.664556
 20
-41.622211
 30
0.0
 10
118.584718
 20
-41.517253
 30
0.0
 10
118.479760
 20
-41.437415
 30
0.0
 10
118.357792
 20
-41.384950
 30
0.0
 10
118.270612
 20
-41.378329
 30
0.0
 10
118.226840
 20
-41.375005
 30
0.0
 11
118.726966
 21
-41.875131
 31
0.0
 11
118.709858
 21
-41.745324
 31
0.0
 11
118.660183
 21
-41.625356
 31
0.0
 11
118.580520
 21
-41.521451
 31
0.0
 11
118.476615
 21
-41.441788
 31
0.0
 11
118.356647
 21
-41.392113
 31
0.0
 11
118.226840
 21
-41.375005
 31
0.0
  0
SPLINE
  5
1b6
100
AcDbEntity
  8
0
 62
7
100
AcDbSpline
 70
0
 71
3
 72
13
 73
9
 74
7
 40
0.000000
 40
0.000000
 40
0.000000
 40
0.000000
 40
0.130929
 40
0.260775
 40
0.391704
 40
0.522634
 40
0.652479
 40
0.783409
 40
0.783409
 40
0.783409
 40
0.783409
 10
118.226840
 20
-56.995243
 30
0.0
 10
118.270612
 20
-56.991919
 30
0.0
 10
118.357792
 20
-56.985298
 30
0.0
 10
118.479760
 20
-56.932833
 30
0.0
 10
118.584718
 20
-56.852995
 30
0.0
 10
118.664556
 20
-56.748037
 30
0.0
 10
118.717021
 20
-56.626069
 30
0.0
 10
118.723642
 20
-56.538888
 30
0.0
 10
118.726966
 20
-56.495117
 30
0.0
 11
118.226840
 21
-56.995243
 31
0.0
 11
118.356647
 21
-56.978135
 31
0.0
 11
118.476615
 21
-56.928460
 31
0.0
 11
118.580520
 21
-56.848797
 31
0.0
 11
118.660183
 21
-56.744892
 31
0.0
 11
118.709858
 21
-56.624924
 31
0.0
 11
118.726966
 21
-56.495117
 31
0.0
  0
SPLINE
  5
1b7
100
AcDbEntity
  8
0
 62
7
100
AcDbSpline
 70
0
 71
3
 72
10
 73
6
 74
4
 40
0.000000
 40
0.000000
 40
0.000000
 40
0.000000
 40
0.174489
 40
0.346480
 40
0.520969
 40
0.520969
 40
0.520969
 40
0.520969
 10
107.800902
 20
-41.375005
 30
0.0
 10
107.859164
 20
-41.368922
 30
0.0
 10
107.974853
 20
-41.356844
 30
0.0
 10
108.131221
 20
-41.266600
 30
0.0
 10
108.199557
 20
-41.172472
 30
0.0
 10
108.233972
 20
-41.125069
 30
0.0
 11
107.800902
 21
-41.375005
 31
0.0
 11
107.972721
 21
-41.344598
 31
0.0
 11
108.121685
 21
-41.258627
 31
0.0
 11
108.233972
 21
-41.125069
 31
0.0
  0
LWPOLYLINE
  5
1b8
100
AcDbEntity
  8
0
 62
7
100
AcDbPolyline
 90
2
 70
0
 10
103.106220
 20
-18.493415
 30
0.0
 10
103.106220
 20
-3.873175
 30
0.0
  0
LWPOLYLINE
  5
1b9
100
AcDbEntity
  8
0
 62
7
100
AcDbPolyline
 90
2
 70
0
 10
114.030760
 20
-41.373735
 30
0.0
 10
118.226840
 20
-41.373735
 30
0.0
  0
LWPOLYLINE
  5
1ba
100
AcDbEntity
  8
0
 62
7
100
AcDbPolyline
 90
2
 70
0
 10
108.666280
 20
-40.873355
 30
0.0
 10
113.164620
 20
-40.873355
 30
0.0
  0
LWPOLYLINE
  5
1bb
100
AcDbEntity
  8
0
 62
7
100
AcDbPolyline
 90
2
 70
0
 10
118.226840
 20
-56.994735
 30
0.0
 10
103.606600
 20
-56.994735
 30
0.0
  0
LWPOLYLINE
  5
1bc
100
AcDbEntity
  8
0
 62
7
100
AcDbPolyline
 90
2
 70
0
 10
118.724680
 20
-41.874115
 30
0.0
 10
118.724680
 20
-56.494355
 30
0.0
  0
LWPOLYLINE
  5
1bd
100
AcDbEntity
  8
0
 62
7
100
AcDbPolyline
 90
2
 70
0
 10
103.606600
 20
-41.373735
 30
0.0
 10
107.800140
 20
-41.373735
 30
0.0
  0
SPLINE
  5
1be
100
AcDbEntity
  8
0
 62
7
100
AcDbSpline
 70
0
 71
3
 72
13
 73
9
 74
7
 40
0.000000
 40
0.000000
 40
0.000000
 40
0.000000
 40
0.130887
 40
0.260691
 40
0.391578
 40
0.522466
 40
0.652270
 40
0.783157
 40
0.783157
 40
0.783157
 40
0.783157
 10
103.606854
 20
-41.375005
 30
0.0
 10
103.563098
 20
-41.378349
 30
0.0
 10
103.475949
 20
-41.385010
 30
0.0
 10
103.354042
 20
-41.437503
 30
0.0
 10
103.249142
 20
-41.517347
 30
0.0
 10
103.169352
 20
-41.622287
 30
0.0
 10
103.116921
 20
-41.744221
 30
0.0
 10
103.110304
 20
-41.831374
 30
0.0
 10
103.106982
 20
-41.875131
 30
0.0
 11
103.606854
 21
-41.375005
 31
0.0
 11
103.477097
 21
-41.392168
 31
0.0
 11
103.357186
 21
-41.441872
 31
0.0
 11
103.253339
 21
-41.521541
 31
0.0
 11
103.173723
 21
-41.625429
 31
0.0
 11
103.124079
 21
-41.745365
 31
0.0
 11
103.106982
 21
-41.875131
 31
0.0
  0
SPLINE
  5
1bf
100
AcDbEntity
  8
0
 62
7
100
AcDbSpline
 70
0
 71
3
 72
10
 73
6
 74
4
 40
0.000000
 40
0.000000
 40
0.000000
 40
0.000000
 40
0.174499
 40
0.346499
 40
0.520998
 40
0.520998
 40
0.520998
 40
0.520998
 10
94.600014
 20
-19.750131
 30
0.0
 10
94.634425
 20
-19.797540
 30
0.0
 10
94.702755
 20
-19.891681
 30
0.0
 10
94.859124
 20
-19.981944
 30
0.0
 10
94.974819
 20
-19.994031
 30
0.0
 10
95.033084
 20
-20.000117
 30
0.0
 11
94.600014
 21
-19.750131
 31
0.0
 11
94.712293
 21
-19.883709
 31
0.0
 11
94.861257
 21
-19.969697
 31
0.0
 11
95.033084
 21
-20.000117
 31
0.0
  0
SPLINE
  5
1c0
100
AcDbEntity
  8
0
 62
7
100
AcDbSpline
 70
0
 71
3
 72
10
 73
6
 74
4
 40
0.000000
 40
0.000000
 40
0.000000
 40
0.000000
 40
0.174504
 40
0.346509
 40
0.521013
 40
0.521013
 40
0.521013
 40
0.521013
 10
94.600014
 20
-19.750131
 30
0.0
 10
94.565604
 20
-19.702718
 30
0.0
 10
94.497278
 20
-19.608571
 30
0.0
 10
94.340908
 20
-19.518298
 30
0.0
 10
94.225210
 20
-19.506207
 30
0.0
 10
94.166944
 20
-19.500118
 30
0.0
 11
94.600014
 21
-19.750131
 31
0.0
 11
94.487739
 21
-19.616543
 31
0.0
 11
94.338774
 21
-19.530545
 31
0.0
 11
94.166944
 21
-19.500118
 31
0.0
  0
SPLINE
  5
1c1
100
AcDbEntity
  8
0
 62
7
100
AcDbSpline
 70
0
 71
3
 72
13
 73
9
 74
7
 40
0.000000
 40
0.000000
 40
0.000000
 40
0.000000
 40
0.130887
 40
0.260691
 40
0.391578
 40
0.522466
 40
0.652270
 40
0.783157
 40
0.783157
 40
0.783157
 40
0.783157
 10
84.107020
 20
-35.120001
 30
0.0
 10
84.110342
 20
-35.163758
 30
0.0
 10
84.116959
 20
-35.250911
 30
0.0
 10
84.169390
 20
-35.372845
 30
0.0
 10
84.249180
 20
-35.477785
 30
0.0
 10
84.354080
 20
-35.557628
 30
0.0
 10
84.475987
 20
-35.610122
 30
0.0
 10
84.563136
 20
-35.616783
 30
0.0
 10
84.606892
 20
-35.620127
 30
0.0
 11
84.107020
 21
-35.120001
 31
0.0
 11
84.124117
 21
-35.249767
 31
0.0
 11
84.173761
 21
-35.369703
 31
0.0
 11
84.253377
 21
-35.473591
 31
0.0
 11
84.357224
 21
-35.553259
 31
0.0
 11
84.477135
 21
-35.602964
 31
0.0
 11
84.606892
 21
-35.620127
 31
0.0
  0
SPLINE
  5
1c2
100
AcDbEntity
  8
0
 62
7
100
AcDbSpline
 70
0
 71
3
 72
10
 73
6
 74
4
 40
0.000000
 40
0.000000
 40
0.000000
 40
0.000000
 40
0.174419
 40
0.346343
 40
0.520762
 40
0.520762
 40
0.520762
 40
0.520762
 10
89.666826
 20
-19.500118
 30
0.0
 10
89.608591
 20
-19.506231
 30
0.0
 10
89.492955
 20
-19.518369
 30
0.0
 10
89.336689
 20
-19.608635
 30
0.0
 10
89.268400
 20
-19.702739
 30
0.0
 10
89.234010
 20
-19.750131
 30
0.0
 11
89.666826
 21
-19.500118
 31
0.0
 11
89.495092
 21
-19.530603
 31
0.0
 11
89.346220
 21
-19.616598
 31
0.0
 11
89.234010
 21
-19.750131
 31
0.0
  0
SPLINE
  5
1c3
100
AcDbEntity
  8
0
 62
7
100
AcDbSpline
 70
0
 71
3
 72
13
 73
9
 74
7
 40
0.000000
 40
0.000000
 40
0.000000
 40
0.000000
 40
0.130908
 40
0.260733
 40
0.391641
 40
0.522550
 40
0.652374
 40
0.783283
 40
0.783283
 40
0.783283
 40
0.783283
 10
99.727004
 20
-20.500116
 30
0.0
 10
99.723670
 20
-20.456353
 30
0.0
 10
99.717029
 20
-20.369188
 30
0.0
 10
99.664550
 20
-20.247251
 30
0.0
 10
99.584709
 20
-20.142321
 30
0.0
 10
99.479760
 20
-20.062507
 30
0.0
 10
99.357809
 20
-20.010059
 30
0.0
 10
99.270642
 20
-20.003441
 30
0.0
 10
99.226878
 20
-20.000117
 30
0.0
 11
99.727004
 21
-20.500116
 31
0.0
 11
99.709868
 21
-20.370335
 31
0.0
 11
99.660179
 21
-20.250395
 31
0.0
 11
99.580513
 21
-20.146519
 31
0.0
 11
99.476616
 21
-20.066879
 31
0.0
 11
99.356664
 21
-20.017220
 31
0.0
 11
99.226878
 21
-20.000117
 31
0.0
  0
SPLINE
  5
1c4
100
AcDbEntity
  8
0
 62
7
100
AcDbSpline
 70
0
 71
3
 72
13
 73
9
 74
7
 40
0.000000
 40
0.000000
 40
0.000000
 40
0.000000
 40
0.130929
 40
0.260775
 40
0.391704
 40
0.522634
 40
0.652479
 40
0.783409
 40
0.783409
 40
0.783409
 40
0.783409
 10
99.226878
 20
-35.620127
 30
0.0
 10
99.270650
 20
-35.616803
 30
0.0
 10
99.357830
 20
-35.610182
 30
0.0
 10
99.479798
 20
-35.557717
 30
0.0
 10
99.584756
 20
-35.477879
 30
0.0
 10
99.664594
 20
-35.372921
 30
0.0
 10
99.717059
 20
-35.250953
 30
0.0
 10
99.723680
 20
-35.163772
 30
0.0
 10
99.727004
 20
-35.120001
 30
0.0
 11
99.226878
 21
-35.620127
 31
0.0
 11
99.356685
 21
-35.603019
 31
0.0
 11
99.476653
 21
-35.553344
 31
0.0
 11
99.580558
 21
-35.473681
 31
0.0
 11
99.660221
 21
-35.369776
 31
0.0
 11
99.709896
 21
-35.249808
 31
0.0
 11
99.727004
 21
-35.120001
 31
0.0
  0
SPLINE
  5
1c5
100
AcDbEntity
  8
0
 62
7
100
AcDbSpline
 70
0
 71
3
 72
10
 73
6
 74
4
 40
0.000000
 40
0.000000
 40
0.000000
 40
0.000000
 40
0.174499
 40
0.346499
 40
0.520998
 40
0.520998
 40
0.520998
 40
0.520998
 10
88.800940
 20
-20.000117
 30
0.0
 10
88.859205
 20
-19.994031
 30
0.0
 10
88.974900
 20
-19.981944
 30
0.0
 10
89.131269
 20
-19.891681
 30
0.0
 10
89.199599
 20
-19.797540
 30
0.0
 10
89.234010
 20
-19.750131
 30
0.0
 11
88.800940
 21
-20.000117
 31
0.0
 11
88.972767
 21
-19.969697
 31
0.0
 11
89.121731
 21
-19.883709
 31
0.0
 11
89.234010
 21
-19.750131
 31
0.0
  0
LWPOLYLINE
  5
1c6
100
AcDbEntity
  8
0
 62
7
100
AcDbPolyline
 90
2
 70
0
 10
103.106220
 20
-56.494355
 30
0.0
 10
103.106220
 20
-41.874115
 30
0.0
  0
LWPOLYLINE
  5
1c7
100
AcDbEntity
  8
0
 62
7
100
AcDbPolyline
 90
2
 70
0
 10
95.031560
 20
-19.999635
 30
0.0
 10
99.225100
 20
-19.999635
 30
0.0
  0
LWPOLYLINE
  5
1c8
100
AcDbEntity
  8
0
 62
7
100
AcDbPolyline
 90
2
 70
0
 10
89.664540
 20
-19.499255
 30
0.0
 10
94.165420
 20
-19.499255
 30
0.0
  0
LWPOLYLINE
  5
1c9
100
AcDbEntity
  8
0
 62
7
100
AcDbPolyline
 90
2
 70
0
 10
99.225100
 20
-35.618095
 30
0.0
 10
84.604860
 20
-35.618095
 30
0.0
  0
LWPOLYLINE
  5
1ca
100
AcDbEntity
  8
0
 62
7
100
AcDbPolyline
 90
2
 70
0
 10
99.725480
 20
-20.500015
 30
0.0
 10
99.725480
 20
-35.117715
 30
0.0
  0
LWPOLYLINE
  5
1cb
100
AcDbEntity
  8
0
 62
7
100
AcDbPolyline
 90
2
 70
0
 10
84.604860
 20
-19.999635
 30
0.0
 10
88.798400
 20
-19.999635
 30
0.0
  0
SPLINE
  5
1cc
100
AcDbEntity
  8
0
 62
7
100
AcDbSpline
 70
0
 71
3
 72
10
 73
6
 74
4
 40
0.000000
 40
0.000000
 40
0.000000
 40
0.000000
 40
0.261387
 40
0.515023
 40
0.776410
 40
0.776410
 40
0.776410
 40
0.776410
 10
84.606892
 20
-20.000117
 30
0.0
 10
84.519297
 20
-20.013888
 30
0.0
 10
84.346705
 20
-20.041020
 30
0.0
 10
84.147857
 20
-20.239919
 30
0.0
 10
84.120768
 20
-20.412518
 30
0.0
 10
84.107020
 20
-20.500116
 30
0.0
 11
84.606892
 21
-20.000117
 31
0.0
 11
84.354588
 21
-20.068424
 31
0.0
 11
84.175263
 21
-20.247795
 31
0.0
 11
84.107020
 21
-20.500116
 31
0.0
  0
SPLINE
  5
1cd
100
AcDbEntity
  8
0
 62
7
100
AcDbSpline
 70
0
 71
3
 72
10
 73
6
 74
4
 40
0.000000
 40
0.000000
 40
0.000000
 40
0.000000
 40
0.174489
 40
0.346480
 40
0.520969
 40
0.520969
 40
0.520969
 40
0.520969
 10
94.600014
 20
-38.750169
 30
0.0
 10
94.634429
 20
-38.797572
 30
0.0
 10
94.702765
 20
-38.891700
 30
0.0
 10
94.859133
 20
-38.981944
 30
0.0
 10
94.974822
 20
-38.994022
 30
0.0
 10
95.033084
 20
-39.000105
 30
0.0
 11
94.600014
 21
-38.750169
 31
0.0
 11
94.712301
 21
-38.883727
 31
0.0
 11
94.861265
 21
-38.969698
 31
0.0
 11
95.033084
 21
-39.000105
 31
0.0
  0
SPLINE
  5
1ce
100
AcDbEntity
  8
0
 62
7
100
AcDbSpline
 70
0
 71
3
 72
10
 73
6
 74
4
 40
0.000000
 40
0.000000
 40
0.000000
 40
0.000000
 40
0.174489
 40
0.346480
 40
0.520969
 40
0.520969
 40
0.520969
 40
0.520969
 10
94.600014
 20
-38.750169
 30
0.0
 10
94.565599
 20
-38.702766
 30
0.0
 10
94.497263
 20
-38.608638
 30
0.0
 10
94.340895
 20
-38.518394
 30
0.0
 10
94.225206
 20
-38.506316
 30
0.0
 10
94.166944
 20
-38.500233
 30
0.0
 11
94.600014
 21
-38.750169
 31
0.0
 11
94.487727
 21
-38.616610
 31
0.0
 11
94.338763
 21
-38.530640
 31
0.0
 11
94.166944
 21
-38.500233
 31
0.0
  0
SPLINE
  5
1cf
100
AcDbEntity
  8
0
 62
7
100
AcDbSpline
 70
0
 71
3
 72
10
 73
6
 74
4
 40
0.000000
 40
0.000000
 40
0.000000
 40
0.000000
 40
0.261345
 40
0.514943
 40
0.776288
 40
0.776288
 40
0.776288
 40
0.776288
 10
84.107020
 20
-54.120217
 30
0.0
 10
84.120786
 20
-54.207797
 30
0.0
 10
84.147909
 20
-54.380363
 30
0.0
 10
84.346746
 20
-54.579199
 30
0.0
 10
84.519311
 20
-54.606323
 30
0.0
 10
84.606892
 20
-54.620089
 30
0.0
 11
84.107020
 21
-54.120217
 31
0.0
 11
84.175305
 21
-54.372483
 31
0.0
 11
84.354626
 21
-54.551804
 31
0.0
 11
84.606892
 21
-54.620089
 31
0.0
  0
SPLINE
  5
1d0
100
AcDbEntity
  8
0
 62
7
100
AcDbSpline
 70
0
 71
3
 72
10
 73
6
 74
4
 40
0.000000
 40
0.000000
 40
0.000000
 40
0.000000
 40
0.174404
 40
0.346315
 40
0.520719
 40
0.520719
 40
0.520719
 40
0.520719
 10
89.666826
 20
-38.500233
 30
0.0
 10
89.608596
 20
-38.506339
 30
0.0
 10
89.492968
 20
-38.518465
 30
0.0
 10
89.336704
 20
-38.608702
 30
0.0
 10
89.268405
 20
-38.702787
 30
0.0
 10
89.234010
 20
-38.750169
 30
0.0
 11
89.666826
 21
-38.500233
 31
0.0
 11
89.495103
 21
-38.530697
 31
0.0
 11
89.346232
 21
-38.616665
 31
0.0
 11
89.234010
 21
-38.750169
 31
0.0
  0
SPLINE
  5
1d1
100
AcDbEntity
  8
0
 62
7
100
AcDbSpline
 70
0
 71
3
 72
13
 73
9
 74
7
 40
0.000000
 40
0.000000
 40
0.000000
 40
0.000000
 40
0.130929
 40
0.260775
 40
0.391704
 40
0.522634
 40
0.652479
 40
0.783409
 40
0.783409
 40
0.783409
 40
0.783409
 10
99.727004
 20
-39.500231
 30
0.0
 10
99.723680
 20
-39.456459
 30
0.0
 10
99.717059
 20
-39.369279
 30
0.0
 10
99.664594
 20
-39.247311
 30
0.0
 10
99.584756
 20
-39.142353
 30
0.0
 10
99.479798
 20
-39.062515
 30
0.0
 10
99.357830
 20
-39.010050
 30
0.0
 10
99.270650
 20
-39.003429
 30
0.0
 10
99.226878
 20
-39.000105
 30
0.0
 11
99.727004
 21
-39.500231
 31
0.0
 11
99.709896
 21
-39.370424
 31
0.0
 11
99.660221
 21
-39.250456
 31
0.0
 11
99.580558
 21
-39.146551
 31
0.0
 11
99.476653
 21
-39.066888
 31
0.0
 11
99.356685
 21
-39.017213
 31
0.0
 11
99.226878
 21
-39.000105
 31
0.0
  0
SPLINE
  5
1d2
100
AcDbEntity
  8
0
 62
7
100
AcDbSpline
 70
0
 71
3
 72
13
 73
9
 74
7
 40
0.000000
 40
0.000000
 40
0.000000
 40
0.000000
 40
0.130887
 40
0.260691
 40
0.391578
 40
0.522466
 40
0.652270
 40
0.783157
 40
0.783157
 40
0.783157
 40
0.783157
 10
99.226878
 20
-54.620089
 30
0.0
 10
99.270635
 20
-54.616767
 30
0.0
 10
99.357788
 20
-54.610150
 30
0.0
 10
99.479722
 20
-54.557719
 30
0.0
 10
99.584662
 20
-54.477929
 30
0.0
 10
99.664506
 20
-54.373029
 30
0.0
 10
99.716999
 20
-54.251122
 30
0.0
 10
99.723660
 20
-54.163973
 30
0.0
 10
99.727004
 20
-54.120217
 30
0.0
 11
99.226878
 21
-54.620089
 31
0.0
 11
99.356644
 21
-54.602992
 31
0.0
 11
99.476580
 21
-54.553348
 31
0.0
 11
99.580468
 21
-54.473732
 31
0.0
 11
99.660137
 21
-54.369885
 31
0.0
 11
99.709841
 21
-54.249974
 31
0.0
 11
99.727004
 21
-54.120217
 31
0.0
  0
SPLINE
  5
1d3
100
AcDbEntity
  8
0
 62
7
100
AcDbSpline
 70
0
 71
3
 72
10
 73
6
 74
4
 40
0.000000
 40
0.000000
 40
0.000000
 40
0.000000
 40
0.174489
 40
0.346480
 40
0.520969
 40
0.520969
 40
0.520969
 40
0.520969
 10
88.800940
 20
-39.000105
 30
0.0
 10
88.859202
 20
-38.994022
 30
0.0
 10
88.974891
 20
-38.981944
 30
0.0
 10
89.131259
 20
-38.891700
 30
0.0
 10
89.199595
 20
-38.797572
 30
0.0
 10
89.234010
 20
-38.750169
 30
0.0
 11
88.800940
 21
-39.000105
 31
0.0
 11
88.972759
 21
-38.969698
 31
0.0
 11
89.121723
 21
-38.883727
 31
0.0
 11
89.234010
 21
-38.750169
 31
0.0
  0
LWPOLYLINE
  5
1d4
100
AcDbEntity
  8
0
 62
7
100
AcDbPolyline
 90
2
 70
0
 10
84.104480
 20
-35.117715
 30
0.0
 10
84.104480
 20
-20.500015
 30
0.0
  0
LWPOLYLINE
  5
1d5
100
AcDbEntity
  8
0
 62
7
100
AcDbPolyline
 90
2
 70
0
 10
95.031560
 20
-38.998835
 30
0.0
 10
99.225100
 20
-38.998835
 30
0.0
  0
LWPOLYLINE
  5
1d6
100
AcDbEntity
  8
0
 62
7
100
AcDbPolyline
 90
2
 70
0
 10
89.664540
 20
-38.498455
 30
0.0
 10
94.165420
 20
-38.498455
 30
0.0
  0
LWPOLYLINE
  5
1d7
100
AcDbEntity
  8
0
 62
7
100
AcDbPolyline
 90
2
 70
0
 10
99.225100
 20
-54.619835
 30
0.0
 10
84.604860
 20
-54.619835
 30
0.0
  0
LWPOLYLINE
  5
1d8
100
AcDbEntity
  8
0
 62
7
100
AcDbPolyline
 90
2
 70
0
 10
99.725480
 20
-39.499215
 30
0.0
 10
99.725480
 20
-54.119455
 30
0.0
  0
LWPOLYLINE
  5
1d9
100
AcDbEntity
  8
0
 62
7
100
AcDbPolyline
 90
2
 70
0
 10
84.604860
 20
-38.998835
 30
0.0
 10
88.798400
 20
-38.998835
 30
0.0
  0
SPLINE
  5
1da
100
AcDbEntity
  8
0
 62
7
100
AcDbSpline
 70
0
 71
3
 72
13
 73
9
 74
7
 40
0.000000
 40
0.000000
 40
0.000000
 40
0.000000
 40
0.130887
 40
0.260691
 40
0.391578
 40
0.522466
 40
0.652270
 40
0.783157
 40
0.783157
 40
0.783157
 40
0.783157
 10
84.606892
 20
-39.000105
 30
0.0
 10
84.563136
 20
-39.003449
 30
0.0
 10
84.475987
 20
-39.010110
 30
0.0
 10
84.354080
 20
-39.062603
 30
0.0
 10
84.249180
 20
-39.142447
 30
0.0
 10
84.169390
 20
-39.247387
 30
0.0
 10
84.116959
 20
-39.369321
 30
0.0
 10
84.110342
 20
-39.456474
 30
0.0
 10
84.107020
 20
-39.500231
 30
0.0
 11
84.606892
 21
-39.000105
 31
0.0
 11
84.477135
 21
-39.017268
 31
0.0
 11
84.357224
 21
-39.066972
 31
0.0
 11
84.253377
 21
-39.146641
 31
0.0
 11
84.173761
 21
-39.250529
 31
0.0
 11
84.124117
 21
-39.370465
 31
0.0
 11
84.107020
 21
-39.500231
 31
0.0
  0
SPLINE
  5
1db
100
AcDbEntity
  8
0
 62
7
100
AcDbSpline
 70
0
 71
3
 72
10
 73
6
 74
4
 40
0.000000
 40
0.000000
 40
0.000000
 40
0.000000
 40
0.174501
 40
0.346504
 40
0.521005
 40
0.521005
 40
0.521005
 40
0.521005
 10
94.600014
 20
-0.750125
 30
0.0
 10
94.634424
 20
-0.797537
 30
0.0
 10
94.702753
 20
-0.891681
 30
0.0
 10
94.859122
 20
-0.981948
 30
0.0
 10
94.974819
 20
-0.994037
 30
0.0
 10
95.033084
 20
-1.000125
 30
0.0
 11
94.600014
 21
-0.750125
 31
0.0
 11
94.712291
 21
-0.883708
 31
0.0
 11
94.861256
 21
-0.969701
 31
0.0
 11
95.033084
 21
-1.000125
 31
0.0
  0
SPLINE
  5
1dc
100
AcDbEntity
  8
0
 62
7
100
AcDbSpline
 70
0
 71
3
 72
10
 73
6
 74
4
 40
0.000000
 40
0.000000
 40
0.000000
 40
0.000000
 40
0.174501
 40
0.346504
 40
0.521005
 40
0.521005
 40
0.521005
 40
0.521005
 10
94.600014
 20
-0.750125
 30
0.0
 10
94.565604
 20
-0.702714
 30
0.0
 10
94.497275
 20
-0.608570
 30
0.0
 10
94.340906
 20
-0.518303
 30
0.0
 10
94.225209
 20
-0.506214
 30
0.0
 10
94.166944
 20
-0.500126
 30
0.0
 11
94.600014
 21
-0.750125
 31
0.0
 11
94.487737
 21
-0.616543
 31
0.0
 11
94.338772
 21
-0.530550
 31
0.0
 11
94.166944
 21
-0.500126
 31
0.0
  0
SPLINE
  5
1dd
100
AcDbEntity
  8
0
 62
7
100
AcDbSpline
 70
0
 71
3
 72
10
 73
6
 74
4
 40
0.000000
 40
0.000000
 40
0.000000
 40
0.000000
 40
0.261387
 40
0.515023
 40
0.776410
 40
0.776410
 40
0.776410
 40
0.776410
 10
84.107020
 20
-16.120115
 30
0.0
 10
84.120768
 20
-16.207714
 30
0.0
 10
84.147857
 20
-16.380313
 30
0.0
 10
84.346705
 20
-16.579211
 30
0.0
 10
84.519297
 20
-16.606344
 30
0.0
 10
84.606892
 20
-16.620114
 30
0.0
 11
84.107020
 21
-16.120115
 31
0.0
 11
84.175263
 21
-16.372437
 31
0.0
 11
84.354588
 21
-16.551807
 31
0.0
 11
84.606892
 21
-16.620114
 31
0.0
  0
SPLINE
  5
1de
100
AcDbEntity
  8
0
 62
7
100
AcDbSpline
 70
0
 71
3
 72
10
 73
6
 74
4
 40
0.000000
 40
0.000000
 40
0.000000
 40
0.000000
 40
0.174417
 40
0.346339
 40
0.520755
 40
0.520755
 40
0.520755
 40
0.520755
 10
89.666826
 20
-0.500126
 30
0.0
 10
89.608592
 20
-0.506238
 30
0.0
 10
89.492957
 20
-0.518373
 30
0.0
 10
89.336692
 20
-0.608634
 30
0.0
 10
89.268401
 20
-0.702736
 30
0.0
 10
89.234010
 20
-0.750125
 30
0.0
 11
89.666826
 21
-0.500126
 31
0.0
 11
89.495094
 21
-0.530607
 31
0.0
 11
89.346222
 21
-0.616598
 31
0.0
 11
89.234010
 21
-0.750125
 31
0.0
  0
SPLINE
  5
1df
100
AcDbEntity
  8
0
 62
7
100
AcDbSpline
 70
0
 71
3
 72
13
 73
9
 74
7
 40
0.000000
 40
0.000000
 40
0.000000
 40
0.000000
 40
0.130909
 40
0.260734
 40
0.391643
 40
0.522551
 40
0.652376
 40
0.783285
 40
0.783285
 40
0.783285
 40
0.783285
 10
99.727004
 20
-1.500127
 30
0.0
 10
99.723670
 20
-1.456363
 30
0.0
 10
99.717030
 20
-1.369197
 30
0.0
 10
99.664551
 20
-1.247260
 30
0.0
 10
99.584710
 20
-1.142330
 30
0.0
 10
99.479760
 20
-1.062515
 30
0.0
 10
99.357810
 20
-1.010067
 30
0.0
 10
99.270643
 20
-1.003448
 30
0.0
 10
99.226878
 20
-1.000125
 30
0.0
 11
99.727004
 21
-1.500127
 31
0.0
 11
99.709869
 21
-1.370344
 31
0.0
 11
99.660180
 21
-1.250404
 31
0.0
 11
99.580514
 21
-1.146527
 31
0.0
 11
99.476617
 21
-1.066887
 31
0.0
 11
99.356665
 21
-1.017228
 31
0.0
 11
99.226878
 21
-1.000125
 31
0.0
  0
SPLINE
  5
1e0
100
AcDbEntity
  8
0
 62
7
100
AcDbSpline
 70
0
 71
3
 72
13
 73
9
 74
7
 40
0.000000
 40
0.000000
 40
0.000000
 40
0.000000
 40
0.130908
 40
0.260733
 40
0.391641
 40
0.522550
 40
0.652374
 40
0.783283
 40
0.783283
 40
0.783283
 40
0.783283
 10
99.226878
 20
-16.620114
 30
0.0
 10
99.270642
 20
-16.616791
 30
0.0
 10
99.357809
 20
-16.610172
 30
0.0
 10
99.479760
 20
-16.557724
 30
0.0
 10
99.584709
 20
-16.477910
 30
0.0
 10
99.664550
 20
-16.372981
 30
0.0
 10
99.717029
 20
-16.251044
 30
0.0
 10
99.723670
 20
-16.163879
 30
0.0
 10
99.727004
 20
-16.120115
 30
0.0
 11
99.226878
 21
-16.620114
 31
0.0
 11
99.356664
 21
-16.603011
 31
0.0
 11
99.476616
 21
-16.553352
 31
0.0
 11
99.580513
 21
-16.473713
 31
0.0
 11
99.660179
 21
-16.369836
 31
0.0
 11
99.709868
 21
-16.249897
 31
0.0
 11
99.727004
 21
-16.120115
 31
0.0
  0
SPLINE
  5
1e1
100
AcDbEntity
  8
0
 62
7
100
AcDbSpline
 70
0
 71
3
 72
10
 73
6
 74
4
 40
0.000000
 40
0.000000
 40
0.000000
 40
0.000000
 40
0.174501
 40
0.346504
 40
0.521005
 40
0.521005
 40
0.521005
 40
0.521005
 10
88.800940
 20
-1.000125
 30
0.0
 10
88.859205
 20
-0.994037
 30
0.0
 10
88.974902
 20
-0.981948
 30
0.0
 10
89.131271
 20
-0.891681
 30
0.0
 10
89.199600
 20
-0.797537
 30
0.0
 10
89.234010
 20
-0.750125
 30
0.0
 11
88.800940
 21
-1.000125
 31
0.0
 11
88.972768
 21
-0.969701
 31
0.0
 11
89.121733
 21
-0.883708
 31
0.0
 11
89.234010
 21
-0.750125
 31
0.0
  0
LWPOLYLINE
  5
1e2
100
AcDbEntity
  8
0
 62
7
100
AcDbPolyline
 90
2
 70
0
 10
84.104480
 20
-54.119455
 30
0.0
 10
84.104480
 20
-39.499215
 30
0.0
  0
LWPOLYLINE
  5
1e3
100
AcDbEntity
  8
0
 62
7
100
AcDbPolyline
 90
2
 70
0
 10
95.031560
 20
-0.997895
 30
0.0
 10
99.225100
 20
-0.997895
 30
0.0
  0
LWPOLYLINE
  5
1e4
100
AcDbEntity
  8
0
 62
7
100
AcDbPolyline
 90
2
 70
0
 10
89.664540
 20
-0.500055
 30
0.0
 10
94.165420
 20
-0.500055
 30
0.0
  0
LWPOLYLINE
  5
1e5
100
AcDbEntity
  8
0
 62
7
100
AcDbPolyline
 90
2
 70
0
 10
99.225100
 20
-16.618895
 30
0.0
 10
84.604860
 20
-16.618895
 30
0.0
  0
LWPOLYLINE
  5
1e6
100
AcDbEntity
  8
0
 62
7
100
AcDbPolyline
 90
2
 70
0
 10
99.725480
 20
-1.498275
 30
0.0
 10
99.725480
 20
-16.118515
 30
0.0
  0
LWPOLYLINE
  5
1e7
100
AcDbEntity
  8
0
 62
7
100
AcDbPolyline
 90
2
 70
0
 10
84.604860
 20
-0.997895
 30
0.0
 10
88.798400
 20
-0.997895
 30
0.0
  0
SPLINE
  5
1e8
100
AcDbEntity
  8
0
 62
7
100
AcDbSpline
 70
0
 71
3
 72
10
 73
6
 74
4
 40
0.000000
 40
0.000000
 40
0.000000
 40
0.000000
 40
0.261388
 40
0.515025
 40
0.776413
 40
0.776413
 40
0.776413
 40
0.776413
 10
84.606892
 20
-1.000125
 30
0.0
 10
84.519297
 20
-1.013895
 30
0.0
 10
84.346704
 20
-1.041028
 30
0.0
 10
84.147856
 20
-1.239928
 30
0.0
 10
84.120768
 20
-1.412528
 30
0.0
 10
84.107020
 20
-1.500127
 30
0.0
 11
84.606892
 21
-1.000125
 31
0.0
 11
84.354587
 21
-1.068432
 31
0.0
 11
84.175262
 21
-1.247804
 31
0.0
 11
84.107020
 21
-1.500127
 31
0.0
  0
SPLINE
  5
1e9
100
AcDbEntity
  8
0
 62
7
100
AcDbSpline
 70
0
 71
3
 72
10
 73
6
 74
4
 40
0.000000
 40
0.000000
 40
0.000000
 40
0.000000
 40
0.174414
 40
0.346334
 40
0.520748
 40
0.520748
 40
0.520748
 40
0.520748
 10
75.600052
 20
-22.125132
 30
0.0
 10
75.634444
 20
-22.172520
 30
0.0
 10
75.702736
 20
-22.266619
 30
0.0
 10
75.859002
 20
-22.356875
 30
0.0
 10
75.974635
 20
-22.369009
 30
0.0
 10
76.032868
 20
-22.375119
 30
0.0
 11
75.600052
 21
-22.125132
 31
0.0
 11
75.712266
 21
-22.258655
 31
0.0
 11
75.861138
 21
-22.344641
 31
0.0
 11
76.032868
 21
-22.375119
 31
0.0
  0
SPLINE
  5
1ea
100
AcDbEntity
  8
0
 62
7
100
AcDbSpline
 70
0
 71
3
 72
10
 73
6
 74
4
 40
0.000000
 40
0.000000
 40
0.000000
 40
0.000000
 40
0.174504
 40
0.346509
 40
0.521013
 40
0.521013
 40
0.521013
 40
0.521013
 10
75.600052
 20
-22.125132
 30
0.0
 10
75.565642
 20
-22.077719
 30
0.0
 10
75.497316
 20
-21.983572
 30
0.0
 10
75.340946
 20
-21.893300
 30
0.0
 10
75.225248
 20
-21.881209
 30
0.0
 10
75.166982
 20
-21.875120
 30
0.0
 11
75.600052
 21
-22.125132
 31
0.0
 11
75.487777
 21
-21.991544
 31
0.0
 11
75.338812
 21
-21.905547
 31
0.0
 11
75.166982
 21
-21.875120
 31
0.0
  0
SPLINE
  5
1eb
100
AcDbEntity
  8
0
 62
7
100
AcDbSpline
 70
0
 71
3
 72
10
 73
6
 74
4
 40
0.000000
 40
0.000000
 40
0.000000
 40
0.000000
 40
0.261345
 40
0.514943
 40
0.776288
 40
0.776288
 40
0.776288
 40
0.776288
 10
65.107058
 20
-37.495155
 30
0.0
 10
65.120824
 20
-37.582735
 30
0.0
 10
65.147947
 20
-37.755301
 30
0.0
 10
65.346784
 20
-37.954137
 30
0.0
 10
65.519349
 20
-37.981261
 30
0.0
 10
65.606930
 20
-37.995027
 30
0.0
 11
65.107058
 21
-37.495155
 31
0.0
 11
65.175343
 21
-37.747421
 31
0.0
 11
65.354664
 21
-37.926742
 31
0.0
 11
65.606930
 21
-37.995027
 31
0.0
  0
SPLINE
  5
1ec
100
AcDbEntity
  8
0
 62
7
100
AcDbSpline
 70
0
 71
3
 72
10
 73
6
 74
4
 40
0.000000
 40
0.000000
 40
0.000000
 40
0.000000
 40
0.174504
 40
0.346509
 40
0.521013
 40
0.521013
 40
0.521013
 40
0.521013
 10
70.666864
 20
-21.875120
 30
0.0
 10
70.608598
 20
-21.881209
 30
0.0
 10
70.492900
 20
-21.893300
 30
0.0
 10
70.336530
 20
-21.983572
 30
0.0
 10
70.268204
 20
-22.077719
 30
0.0
 10
70.233794
 20
-22.125132
 30
0.0
 11
70.666864
 21
-21.875120
 31
0.0
 11
70.495034
 21
-21.905547
 31
0.0
 11
70.346069
 21
-21.991544
 31
0.0
 11
70.233794
 21
-22.125132
 31
0.0
  0
SPLINE
  5
1ed
100
AcDbEntity
  8
0
 62
7
100
AcDbSpline
 70
0
 71
3
 72
13
 73
9
 74
7
 40
0.000000
 40
0.000000
 40
0.000000
 40
0.000000
 40
0.130908
 40
0.260733
 40
0.391641
 40
0.522550
 40
0.652374
 40
0.783283
 40
0.783283
 40
0.783283
 40
0.783283
 10
80.727042
 20
-22.875118
 30
0.0
 10
80.723708
 20
-22.831354
 30
0.0
 10
80.717067
 20
-22.744189
 30
0.0
 10
80.664588
 20
-22.622252
 30
0.0
 10
80.584747
 20
-22.517323
 30
0.0
 10
80.479798
 20
-22.437509
 30
0.0
 10
80.357847
 20
-22.385061
 30
0.0
 10
80.270680
 20
-22.378442
 30
0.0
 10
80.226916
 20
-22.375119
 30
0.0
 11
80.727042
 21
-22.875118
 31
0.0
 11
80.709906
 21
-22.745336
 31
0.0
 11
80.660217
 21
-22.625397
 31
0.0
 11
80.580551
 21
-22.521520
 31
0.0
 11
80.476654
 21
-22.441881
 31
0.0
 11
80.356702
 21
-22.392222
 31
0.0
 11
80.226916
 21
-22.375119
 31
0.0
  0
SPLINE
  5
1ee
100
AcDbEntity
  8
0
 62
7
100
AcDbSpline
 70
0
 71
3
 72
13
 73
9
 74
7
 40
0.000000
 40
0.000000
 40
0.000000
 40
0.000000
 40
0.130887
 40
0.260691
 40
0.391578
 40
0.522466
 40
0.652270
 40
0.783157
 40
0.783157
 40
0.783157
 40
0.783157
 10
80.226916
 20
-37.995027
 30
0.0
 10
80.270673
 20
-37.991705
 30
0.0
 10
80.357826
 20
-37.985088
 30
0.0
 10
80.479760
 20
-37.932657
 30
0.0
 10
80.584700
 20
-37.852867
 30
0.0
 10
80.664544
 20
-37.747967
 30
0.0
 10
80.717037
 20
-37.626060
 30
0.0
 10
80.723698
 20
-37.538911
 30
0.0
 10
80.727042
 20
-37.495155
 30
0.0
 11
80.226916
 21
-37.995027
 31
0.0
 11
80.356682
 21
-37.977930
 31
0.0
 11
80.476618
 21
-37.928286
 31
0.0
 11
80.580506
 21
-37.848670
 31
0.0
 11
80.660175
 21
-37.744823
 31
0.0
 11
80.709879
 21
-37.624912
 31
0.0
 11
80.727042
 21
-37.495155
 31
0.0
  0
SPLINE
  5
1ef
100
AcDbEntity
  8
0
 62
7
100
AcDbSpline
 70
0
 71
3
 72
10
 73
6
 74
4
 40
0.000000
 40
0.000000
 40
0.000000
 40
0.000000
 40
0.174414
 40
0.346334
 40
0.520748
 40
0.520748
 40
0.520748
 40
0.520748
 10
69.800978
 20
-22.375119
 30
0.0
 10
69.859211
 20
-22.369009
 30
0.0
 10
69.974844
 20
-22.356875
 30
0.0
 10
70.131110
 20
-22.266619
 30
0.0
 10
70.199402
 20
-22.172520
 30
0.0
 10
70.233794
 20
-22.125132
 30
0.0
 11
69.800978
 21
-22.375119
 31
0.0
 11
69.972709
 21
-22.344641
 31
0.0
 11
70.121580
 21
-22.258655
 31
0.0
 11
70.233794
 21
-22.125132
 31
0.0
  0
LWPOLYLINE
  5
1f0
100
AcDbEntity
  8
0
 62
7
100
AcDbPolyline
 90
2
 70
0
 10
84.104480
 20
-16.118515
 30
0.0
 10
84.104480
 20
-1.498275
 30
0.0
  0
LWPOLYLINE
  5
1f1
100
AcDbEntity
  8
0
 62
7
100
AcDbPolyline
 90
2
 70
0
 10
76.032360
 20
-22.374535
 30
0.0
 10
80.225900
 20
-22.374535
 30
0.0
  0
LWPOLYLINE
  5
1f2
100
AcDbEntity
  8
0
 62
7
100
AcDbPolyline
 90
2
 70
0
 10
70.665340
 20
-21.874155
 30
0.0
 10
75.166220
 20
-21.874155
 30
0.0
  0
LWPOLYLINE
  5
1f3
100
AcDbEntity
  8
0
 62
7
100
AcDbPolyline
 90
2
 70
0
 10
80.225900
 20
-37.992995
 30
0.0
 10
65.605660
 20
-37.992995
 30
0.0
  0
LWPOLYLINE
  5
1f4
100
AcDbEntity
  8
0
 62
7
100
AcDbPolyline
 90
2
 70
0
 10
80.726280
 20
-22.874915
 30
0.0
 10
80.726280
 20
-37.492615
 30
0.0
  0
LWPOLYLINE
  5
1f5
100
AcDbEntity
  8
0
 62
7
100
AcDbPolyline
 90
2
 70
0
 10
65.605660
 20
-22.374535
 30
0.0
 10
69.799200
 20
-22.374535
 30
0.0
  0
SPLINE
  5
1f6
100
AcDbEntity
  8
0
 62
7
100
AcDbSpline
 70
0
 71
3
 72
10
 73
6
 74
4
 40
0.000000
 40
0.000000
 40
0.000000
 40
0.000000
 40
0.261387
 40
0.515023
 40
0.776410
 40
0.776410
 40
0.776410
 40
0.776410
 10
65.606930
 20
-22.375119
 30
0.0
 10
65.519335
 20
-22.388889
 30
0.0
 10
65.346743
 20
-22.416022
 30
0.0
 10
65.147895
 20
-22.614920
 30
0.0
 10
65.120806
 20
-22.787520
 30
0.0
 10
65.107058
 20
-22.875118
 30
0.0
 11
65.606930
 21
-22.375119
 31
0.0
 11
65.354626
 21
-22.443426
 31
0.0
 11
65.175301
 21
-22.622797
 31
0.0
 11
65.107058
 21
-22.875118
 31
0.0
  0
SPLINE
  5
1f7
100
AcDbEntity
  8
0
 62
7
100
AcDbSpline
 70
0
 71
3
 72
10
 73
6
 74
4
 40
0.000000
 40
0.000000
 40
0.000000
 40
0.000000
 40
0.174404
 40
0.346315
 40
0.520719
 40
0.520719
 40
0.520719
 40
0.520719
 10
75.600052
 20
-41.125069
 30
0.0
 10
75.634447
 20
-41.172450
 30
0.0
 10
75.702746
 20
-41.266536
 30
0.0
 10
75.859010
 20
-41.356773
 30
0.0
 10
75.974638
 20
-41.368898
 30
0.0
 10
76.032868
 20
-41.375005
 30
0.0
 11
75.600052
 21
-41.125069
 31
0.0
 11
75.712274
 21
-41.258572
 31
0.0
 11
75.861145
 21
-41.344540
 31
0.0
 11
76.032868
 21
-41.375005
 31
0.0
  0
SPLINE
  5
1f8
100
AcDbEntity
  8
0
 62
7
100
AcDbSpline
 70
0
 71
3
 72
10
 73
6
 74
4
 40
0.000000
 40
0.000000
 40
0.000000
 40
0.000000
 40
0.174489
 40
0.346480
 40
0.520969
 40
0.520969
 40
0.520969
 40
0.520969
 10
75.600052
 20
-41.125069
 30
0.0
 10
75.565637
 20
-41.077666
 30
0.0
 10
75.497301
 20
-40.983538
 30
0.0
 10
75.340933
 20
-40.893294
 30
0.0
 10
75.225244
 20
-40.881216
 30
0.0
 10
75.166982
 20
-40.875133
 30
0.0
 11
75.600052
 21
-41.125069
 31
0.0
 11
75.487765
 21
-40.991510
 31
0.0
 11
75.338801
 21
-40.905540
 31
0.0
 11
75.166982
 21
-40.875133
 31
0.0
  0
SPLINE
  5
1f9
100
AcDbEntity
  8
0
 62
7
100
AcDbSpline
 70
0
 71
3
 72
13
 73
9
 74
7
 40
0.000000
 40
0.000000
 40
0.000000
 40
0.000000
 40
0.130887
 40
0.260691
 40
0.391578
 40
0.522466
 40
0.652270
 40
0.783157
 40
0.783157
 40
0.783157
 40
0.783157
 10
65.107058
 20
-56.495117
 30
0.0
 10
65.110380
 20
-56.538874
 30
0.0
 10
65.116997
 20
-56.626027
 30
0.0
 10
65.169428
 20
-56.747961
 30
0.0
 10
65.249218
 20
-56.852901
 30
0.0
 10
65.354118
 20
-56.932744
 30
0.0
 10
65.476025
 20
-56.985238
 30
0.0
 10
65.563174
 20
-56.991899
 30
0.0
 10
65.606930
 20
-56.995243
 30
0.0
 11
65.107058
 21
-56.495117
 31
0.0
 11
65.124155
 21
-56.624883
 31
0.0
 11
65.173799
 21
-56.744819
 31
0.0
 11
65.253415
 21
-56.848707
 31
0.0
 11
65.357262
 21
-56.928375
 31
0.0
 11
65.477173
 21
-56.978080
 31
0.0
 11
65.606930
 21
-56.995243
 31
0.0
  0
SPLINE
  5
1fa
100
AcDbEntity
  8
0
 62
7
100
AcDbSpline
 70
0
 71
3
 72
10
 73
6
 74
4
 40
0.000000
 40
0.000000
 40
0.000000
 40
0.000000
 40
0.174489
 40
0.346480
 40
0.520969
 40
0.520969
 40
0.520969
 40
0.520969
 10
70.666864
 20
-40.875133
 30
0.0
 10
70.608602
 20
-40.881216
 30
0.0
 10
70.492913
 20
-40.893294
 30
0.0
 10
70.336545
 20
-40.983538
 30
0.0
 10
70.268209
 20
-41.077666
 30
0.0
 10
70.233794
 20
-41.125069
 30
0.0
 11
70.666864
 21
-40.875133
 31
0.0
 11
70.495045
 21
-40.905540
 31
0.0
 11
70.346081
 21
-40.991510
 31
0.0
 11
70.233794
 21
-41.125069
 31
0.0
  0
SPLINE
  5
1fb
100
AcDbEntity
  8
0
 62
7
100
AcDbSpline
 70
0
 71
3
 72
13
 73
9
 74
7
 40
0.000000
 40
0.000000
 40
0.000000
 40
0.000000
 40
0.130929
 40
0.260775
 40
0.391704
 40
0.522634
 40
0.652479
 40
0.783409
 40
0.783409
 40
0.783409
 40
0.783409
 10
80.727042
 20
-41.875131
 30
0.0
 10
80.723718
 20
-41.831359
 30
0.0
 10
80.717097
 20
-41.744179
 30
0.0
 10
80.664632
 20
-41.622211
 30
0.0
 10
80.584794
 20
-41.517253
 30
0.0
 10
80.479836
 20
-41.437415
 30
0.0
 10
80.357868
 20
-41.384950
 30
0.0
 10
80.270688
 20
-41.378329
 30
0.0
 10
80.226916
 20
-41.375005
 30
0.0
 11
80.727042
 21
-41.875131
 31
0.0
 11
80.709934
 21
-41.745324
 31
0.0
 11
80.660259
 21
-41.625356
 31
0.0
 11
80.580596
 21
-41.521451
 31
0.0
 11
80.476691
 21
-41.441788
 31
0.0
 11
80.356723
 21
-41.392113
 31
0.0
 11
80.226916
 21
-41.375005
 31
0.0
  0
SPLINE
  5
1fc
100
AcDbEntity
  8
0
 62
7
100
AcDbSpline
 70
0
 71
3
 72
13
 73
9
 74
7
 40
0.000000
 40
0.000000
 40
0.000000
 40
0.000000
 40
0.130929
 40
0.260775
 40
0.391704
 40
0.522634
 40
0.652479
 40
0.783409
 40
0.783409
 40
0.783409
 40
0.783409
 10
80.226916
 20
-56.995243
 30
0.0
 10
80.270688
 20
-56.991919
 30
0.0
 10
80.357868
 20
-56.985298
 30
0.0
 10
80.479836
 20
-56.932833
 30
0.0
 10
80.584794
 20
-56.852995
 30
0.0
 10
80.664632
 20
-56.748037
 30
0.0
 10
80.717097
 20
-56.626069
 30
0.0
 10
80.723718
 20
-56.538888
 30
0.0
 10
80.727042
 20
-56.495117
 30
0.0
 11
80.226916
 21
-56.995243
 31
0.0
 11
80.356723
 21
-56.978135
 31
0.0
 11
80.476691
 21
-56.928460
 31
0.0
 11
80.580596
 21
-56.848797
 31
0.0
 11
80.660259
 21
-56.744892
 31
0.0
 11
80.709934
 21
-56.624924
 31
0.0
 11
80.727042
 21
-56.495117
 31
0.0
  0
SPLINE
  5
1fd
100
AcDbEntity
  8
0
 62
7
100
AcDbSpline
 70
0
 71
3
 72
10
 73
6
 74
4
 40
0.000000
 40
0.000000
 40
0.000000
 40
0.000000
 40
0.174404
 40
0.346315
 40
0.520719
 40
0.520719
 40
0.520719
 40
0.520719
 10
69.800978
 20
-41.375005
 30
0.0
 10
69.859208
 20
-41.368898
 30
0.0
 10
69.974836
 20
-41.356773
 30
0.0
 10
70.131100
 20
-41.266536
 30
0.0
 10
70.199399
 20
-41.172450
 30
0.0
 10
70.233794
 20
-41.125069
 30
0.0
 11
69.800978
 21
-41.375005
 31
0.0
 11
69.972701
 21
-41.344540
 31
0.0
 11
70.121572
 21
-41.258572
 31
0.0
 11
70.233794
 21
-41.125069
 31
0.0
  0
LWPOLYLINE
  5
1fe
100
AcDbEntity
  8
0
 62
7
100
AcDbPolyline
 90
2
 70
0
 10
65.105280
 20
-37.492615
 30
0.0
 10
65.105280
 20
-22.874915
 30
0.0
  0
LWPOLYLINE
  5
1ff
100
AcDbEntity
  8
0
 62
7
100
AcDbPolyline
 90
2
 70
0
 10
76.032360
 20
-41.373735
 30
0.0
 10
80.225900
 20
-41.373735
 30
0.0
  0
LWPOLYLINE
  5
200
100
AcDbEntity
  8
0
 62
7
100
AcDbPolyline
 90
2
 70
0
 10
70.665340
 20
-40.873355
 30
0.0
 10
75.166220
 20
-40.873355
 30
0.0
  0
LWPOLYLINE
  5
201
100
AcDbEntity
  8
0
 62
7
100
AcDbPolyline
 90
2
 70
0
 10
80.225900
 20
-56.994735
 30
0.0
 10
65.605660
 20
-56.994735
 30
0.0
  0
LWPOLYLINE
  5
202
100
AcDbEntity
  8
0
 62
7
100
AcDbPolyline
 90
2
 70
0
 10
80.726280
 20
-41.874115
 30
0.0
 10
80.726280
 20
-56.494355
 30
0.0
  0
LWPOLYLINE
  5
203
100
AcDbEntity
  8
0
 62
7
100
AcDbPolyline
 90
2
 70
0
 10
65.605660
 20
-41.373735
 30
0.0
 10
69.799200
 20
-41.373735
 30
0.0
  0
SPLINE
  5
204
100
AcDbEntity
  8
0
 62
7
100
AcDbSpline
 70
0
 71
3
 72
13
 73
9
 74
7
 40
0.000000
 40
0.000000
 40
0.000000
 40
0.000000
 40
0.130887
 40
0.260691
 40
0.391578
 40
0.522466
 40
0.652270
 40
0.783157
 40
0.783157
 40
0.783157
 40
0.783157
 10
65.606930
 20
-41.375005
 30
0.0
 10
65.563174
 20
-41.378349
 30
0.0
 10
65.476025
 20
-41.385010
 30
0.0
 10
65.354118
 20
-41.437503
 30
0.0
 10
65.249218
 20
-41.517347
 30
0.0
 10
65.169428
 20
-41.622287
 30
0.0
 10
65.116997
 20
-41.744221
 30
0.0
 10
65.110380
 20
-41.831374
 30
0.0
 10
65.107058
 20
-41.875131
 30
0.0
 11
65.606930
 21
-41.375005
 31
0.0
 11
65.477173
 21
-41.392168
 31
0.0
 11
65.357262
 21
-41.441872
 31
0.0
 11
65.253415
 21
-41.521541
 31
0.0
 11
65.173799
 21
-41.625429
 31
0.0
 11
65.124155
 21
-41.745365
 31
0.0
 11
65.107058
 21
-41.875131
 31
0.0
  0
SPLINE
  5
205
100
AcDbEntity
  8
0
 62
7
100
AcDbSpline
 70
0
 71
3
 72
10
 73
6
 74
4
 40
0.000000
 40
0.000000
 40
0.000000
 40
0.000000
 40
0.174419
 40
0.346343
 40
0.520762
 40
0.520762
 40
0.520762
 40
0.520762
 10
75.600052
 20
-3.125119
 30
0.0
 10
75.634442
 20
-3.172511
 30
0.0
 10
75.702731
 20
-3.266616
 30
0.0
 10
75.858997
 20
-3.356881
 30
0.0
 10
75.974633
 20
-3.369019
 30
0.0
 10
76.032868
 20
-3.375132
 30
0.0
 11
75.600052
 21
-3.125119
 31
0.0
 11
75.712262
 21
-3.258652
 31
0.0
 11
75.861134
 21
-3.344647
 31
0.0
 11
76.032868
 21
-3.375132
 31
0.0
  0
SPLINE
  5
206
100
AcDbEntity
  8
0
 62
7
100
AcDbSpline
 70
0
 71
3
 72
10
 73
6
 74
4
 40
0.000000
 40
0.000000
 40
0.000000
 40
0.000000
 40
0.174499
 40
0.346499
 40
0.520998
 40
0.520998
 40
0.520998
 40
0.520998
 10
75.600052
 20
-3.125119
 30
0.0
 10
75.565641
 20
-3.077710
 30
0.0
 10
75.497311
 20
-2.983569
 30
0.0
 10
75.340942
 20
-2.893306
 30
0.0
 10
75.225247
 20
-2.881220
 30
0.0
 10
75.166982
 20
-2.875133
 30
0.0
 11
75.600052
 21
-3.125119
 31
0.0
 11
75.487773
 21
-2.991541
 31
0.0
 11
75.338809
 21
-2.905553
 31
0.0
 11
75.166982
 21
-2.875133
 31
0.0
  0
SPLINE
  5
207
100
AcDbEntity
  8
0
 62
7
100
AcDbSpline
 70
0
 71
3
 72
10
 73
6
 74
4
 40
0.000000
 40
0.000000
 40
0.000000
 40
0.000000
 40
0.261387
 40
0.515023
 40
0.776410
 40
0.776410
 40
0.776410
 40
0.776410
 10
65.107058
 20
-18.495117
 30
0.0
 10
65.120806
 20
-18.582715
 30
0.0
 10
65.147895
 20
-18.755315
 30
0.0
 10
65.346743
 20
-18.954213
 30
0.0
 10
65.519335
 20
-18.981345
 30
0.0
 10
65.606930
 20
-18.995116
 30
0.0
 11
65.107058
 21
-18.495117
 31
0.0
 11
65.175301
 21
-18.747438
 31
0.0
 11
65.354626
 21
-18.926809
 31
0.0
 11
65.606930
 21
-18.995116
 31
0.0
  0
SPLINE
  5
208
100
AcDbEntity
  8
0
 62
7
100
AcDbSpline
 70
0
 71
3
 72
10
 73
6
 74
4
 40
0.000000
 40
0.000000
 40
0.000000
 40
0.000000
 40
0.174499
 40
0.346499
 40
0.520998
 40
0.520998
 40
0.520998
 40
0.520998
 10
70.666864
 20
-2.875133
 30
0.0
 10
70.608599
 20
-2.881220
 30
0.0
 10
70.492904
 20
-2.893306
 30
0.0
 10
70.336535
 20
-2.983569
 30
0.0
 10
70.268205
 20
-3.077710
 30
0.0
 10
70.233794
 20
-3.125119
 30
0.0
 11
70.666864
 21
-2.875133
 31
0.0
 11
70.495037
 21
-2.905553
 31
0.0
 11
70.346073
 21
-2.991541
 31
0.0
 11
70.233794
 21
-3.125119
 31
0.0
  0
SPLINE
  5
209
100
AcDbEntity
  8
0
 62
7
100
AcDbSpline
 70
0
 71
3
 72
13
 73
9
 74
7
 40
0.000000
 40
0.000000
 40
0.000000
 40
0.000000
 40
0.130908
 40
0.260733
 40
0.391641
 40
0.522550
 40
0.652374
 40
0.783283
 40
0.783283
 40
0.783283
 40
0.783283
 10
80.727042
 20
-3.875131
 30
0.0
 10
80.723708
 20
-3.831367
 30
0.0
 10
80.717067
 20
-3.744202
 30
0.0
 10
80.664588
 20
-3.622265
 30
0.0
 10
80.584747
 20
-3.517336
 30
0.0
 10
80.479798
 20
-3.437522
 30
0.0
 10
80.357847
 20
-3.385073
 30
0.0
 10
80.270680
 20
-3.378455
 30
0.0
 10
80.226916
 20
-3.375132
 30
0.0
 11
80.727042
 21
-3.875131
 31
0.0
 11
80.709906
 21
-3.745349
 31
0.0
 11
80.660217
 21
-3.625409
 31
0.0
 11
80.580551
 21
-3.521533
 31
0.0
 11
80.476654
 21
-3.441893
 31
0.0
 11
80.356702
 21
-3.392234
 31
0.0
 11
80.226916
 21
-3.375132
 31
0.0
  0
SPLINE
  5
20a
100
AcDbEntity
  8
0
 62
7
100
AcDbSpline
 70
0
 71
3
 72
13
 73
9
 74
7
 40
0.000000
 40
0.000000
 40
0.000000
 40
0.000000
 40
0.130908
 40
0.260733
 40
0.391641
 40
0.522550
 40
0.652374
 40
0.783283
 40
0.783283
 40
0.783283
 40
0.783283
 10
80.226916
 20
-18.995116
 30
0.0
 10
80.270680
 20
-18.991793
 30
0.0
 10
80.357847
 20
-18.985174
 30
0.0
 10
80.479798
 20
-18.932726
 30
0.0
 10
80.584747
 20
-18.852912
 30
0.0
 10
80.664588
 20
-18.747983
 30
0.0
 10
80.717067
 20
-18.626045
 30
0.0
 10
80.723708
 20
-18.538880
 30
0.0
 10
80.727042
 20
-18.495117
 30
0.0
 11
80.226916
 21
-18.995116
 31
0.0
 11
80.356702
 21
-18.978013
 31
0.0
 11
80.476654
 21
-18.928354
 31
0.0
 11
80.580551
 21
-18.848714
 31
0.0
 11
80.660217
 21
-18.744838
 31
0.0
 11
80.709906
 21
-18.624899
 31
0.0
 11
80.727042
 21
-18.495117
 31
0.0
  0
SPLINE
  5
20b
100
AcDbEntity
  8
0
 62
7
100
AcDbSpline
 70
0
 71
3
 72
10
 73
6
 74
4
 40
0.000000
 40
0.000000
 40
0.000000
 40
0.000000
 40
0.174419
 40
0.346343
 40
0.520762
 40
0.520762
 40
0.520762
 40
0.520762
 10
69.800978
 20
-3.375132
 30
0.0
 10
69.859213
 20
-3.369019
 30
0.0
 10
69.974849
 20
-3.356881
 30
0.0
 10
70.131115
 20
-3.266616
 30
0.0
 10
70.199404
 20
-3.172511
 30
0.0
 10
70.233794
 20
-3.125119
 30
0.0
 11
69.800978
 21
-3.375132
 31
0.0
 11
69.972712
 21
-3.344647
 31
0.0
 11
70.121584
 21
-3.258652
 31
0.0
 11
70.233794
 21
-3.125119
 31
0.0
  0
LWPOLYLINE
  5
20c
100
AcDbEntity
  8
0
 62
7
100
AcDbPolyline
 90
2
 70
0
 10
65.105280
 20
-56.494355
 30
0.0
 10
65.105280
 20
-41.874115
 30
0.0
  0
LWPOLYLINE
  5
20d
100
AcDbEntity
  8
0
 62
7
100
AcDbPolyline
 90
2
 70
0
 10
76.032360
 20
-3.372795
 30
0.0
 10
80.225900
 20
-3.372795
 30
0.0
  0
LWPOLYLINE
  5
20e
100
AcDbEntity
  8
0
 62
7
100
AcDbPolyline
 90
2
 70
0
 10
70.665340
 20
-2.874955
 30
0.0
 10
75.166220
 20
-2.874955
 30
0.0
  0
LWPOLYLINE
  5
20f
100
AcDbEntity
  8
0
 62
7
100
AcDbPolyline
 90
2
 70
0
 10
80.225900
 20
-18.993795
 30
0.0
 10
65.605660
 20
-18.993795
 30
0.0
  0
LWPOLYLINE
  5
210
100
AcDbEntity
  8
0
 62
7
100
AcDbPolyline
 90
2
 70
0
 10
80.726280
 20
-3.873175
 30
0.0
 10
80.726280
 20
-18.493415
 30
0.0
  0
LWPOLYLINE
  5
211
100
AcDbEntity
  8
0
 62
7
100
AcDbPolyline
 90
2
 70
0
 10
65.605660
 20
-3.372795
 30
0.0
 10
69.799200
 20
-3.372795
 30
0.0
  0
SPLINE
  5
212
100
AcDbEntity
  8
0
 62
7
100
AcDbSpline
 70
0
 71
3
 72
10
 73
6
 74
4
 40
0.000000
 40
0.000000
 40
0.000000
 40
0.000000
 40
0.261387
 40
0.515023
 40
0.776410
 40
0.776410
 40
0.776410
 40
0.776410
 10
65.606930
 20
-3.375132
 30
0.0
 10
65.519335
 20
-3.388902
 30
0.0
 10
65.346743
 20
-3.416034
 30
0.0
 10
65.147895
 20
-3.614933
 30
0.0
 10
65.120806
 20
-3.787532
 30
0.0
 10
65.107058
 20
-3.875131
 30
0.0
 11
65.606930
 21
-3.375132
 31
0.0
 11
65.354626
 21
-3.443438
 31
0.0
 11
65.175301
 21
-3.622809
 31
0.0
 11
65.107058
 21
-3.875131
 31
0.0
  0
SPLINE
  5
213
100
AcDbEntity
  8
0
 62
7
100
AcDbSpline
 70
0
 71
3
 72
10
 73
6
 74
4
 40
0.000000
 40
0.000000
 40
0.000000
 40
0.000000
 40
0.174489
 40
0.346480
 40
0.520969
 40
0.520969
 40
0.520969
 40
0.520969
 10
56.599836
 20
-26.875161
 30
0.0
 10
56.634251
 20
-26.922564
 30
0.0
 10
56.702587
 20
-27.016692
 30
0.0
 10
56.858955
 20
-27.106936
 30
0.0
 10
56.974644
 20
-27.119014
 30
0.0
 10
57.032906
 20
-27.125097
 30
0.0
 11
56.599836
 21
-26.875161
 31
0.0
 11
56.712123
 21
-27.008719
 31
0.0
 11
56.861087
 21
-27.094690
 31
0.0
 11
57.032906
 21
-27.125097
 31
0.0
  0
SPLINE
  5
214
100
AcDbEntity
  8
0
 62
7
100
AcDbSpline
 70
0
 71
3
 72
10
 73
6
 74
4
 40
0.000000
 40
0.000000
 40
0.000000
 40
0.000000
 40
0.174404
 40
0.346315
 40
0.520719
 40
0.520719
 40
0.520719
 40
0.520719
 10
56.599836
 20
-26.875161
 30
0.0
 10
56.565441
 20
-26.827779
 30
0.0
 10
56.497142
 20
-26.733694
 30
0.0
 10
56.340878
 20
-26.643457
 30
0.0
 10
56.225250
 20
-26.631331
 30
0.0
 10
56.167020
 20
-26.625225
 30
0.0
 11
56.599836
 21
-26.875161
 31
0.0
 11
56.487614
 21
-26.741657
 31
0.0
 11
56.338743
 21
-26.655689
 31
0.0
 11
56.167020
 21
-26.625225
 31
0.0
  0
SPLINE
  5
215
100
AcDbEntity
  8
0
 62
7
100
AcDbSpline
 70
0
 71
3
 72
13
 73
9
 74
7
 40
0.000000
 40
0.000000
 40
0.000000
 40
0.000000
 40
0.130887
 40
0.260691
 40
0.391578
 40
0.522466
 40
0.652270
 40
0.783157
 40
0.783157
 40
0.783157
 40
0.783157
 10
46.106842
 20
-42.245209
 30
0.0
 10
46.110186
 20
-42.288965
 30
0.0
 10
46.116847
 20
-42.376114
 30
0.0
 10
46.169340
 20
-42.498021
 30
0.0
 10
46.249184
 20
-42.602921
 30
0.0
 10
46.354124
 20
-42.682711
 30
0.0
 10
46.476058
 20
-42.735142
 30
0.0
 10
46.563211
 20
-42.741759
 30
0.0
 10
46.606968
 20
-42.745081
 30
0.0
 11
46.106842
 21
-42.245209
 31
0.0
 11
46.124005
 21
-42.374966
 31
0.0
 11
46.173710
 21
-42.494877
 31
0.0
 11
46.253378
 21
-42.598724
 31
0.0
 11
46.357266
 21
-42.678340
 31
0.0
 11
46.477202
 21
-42.727984
 31
0.0
 11
46.606968
 21
-42.745081
 31
0.0
  0
SPLINE
  5
216
100
AcDbEntity
  8
0
 62
7
100
AcDbSpline
 70
0
 71
3
 72
10
 73
6
 74
4
 40
0.000000
 40
0.000000
 40
0.000000
 40
0.000000
 40
0.174489
 40
0.346480
 40
0.520969
 40
0.520969
 40
0.520969
 40
0.520969
 10
51.666902
 20
-26.625225
 30
0.0
 10
51.608640
 20
-26.631308
 30
0.0
 10
51.492951
 20
-26.643386
 30
0.0
 10
51.336583
 20
-26.733630
 30
0.0
 10
51.268247
 20
-26.827758
 30
0.0
 10
51.233832
 20
-26.875161
 30
0.0
 11
51.666902
 21
-26.625225
 31
0.0
 11
51.495083
 21
-26.655632
 31
0.0
 11
51.346119
 21
-26.741602
 31
0.0
 11
51.233832
 21
-26.875161
 31
0.0
  0
SPLINE
  5
217
100
AcDbEntity
  8
0
 62
7
100
AcDbSpline
 70
0
 71
3
 72
13
 73
9
 74
7
 40
0.000000
 40
0.000000
 40
0.000000
 40
0.000000
 40
0.130887
 40
0.260691
 40
0.391578
 40
0.522466
 40
0.652270
 40
0.783157
 40
0.783157
 40
0.783157
 40
0.783157
 10
61.726826
 20
-27.625223
 30
0.0
 10
61.723504
 20
-27.581466
 30
0.0
 10
61.716887
 20
-27.494313
 30
0.0
 10
61.664456
 20
-27.372379
 30
0.0
 10
61.584666
 20
-27.267439
 30
0.0
 10
61.479766
 20
-27.187595
 30
0.0
 10
61.357859
 20
-27.135102
 30
0.0
 10
61.270710
 20
-27.128441
 30
0.0
 10
61.226954
 20
-27.125097
 30
0.0
 11
61.726826
 21
-27.625223
 31
0.0
 11
61.709729
 21
-27.495457
 31
0.0
 11
61.660085
 21
-27.375521
 31
0.0
 11
61.580469
 21
-27.271633
 31
0.0
 11
61.476622
 21
-27.191964
 31
0.0
 11
61.356711
 21
-27.142260
 31
0.0
 11
61.226954
 21
-27.125097
 31
0.0
  0
SPLINE
  5
218
100
AcDbEntity
  8
0
 62
7
100
AcDbSpline
 70
0
 71
3
 72
10
 73
6
 74
4
 40
0.000000
 40
0.000000
 40
0.000000
 40
0.000000
 40
0.261345
 40
0.514943
 40
0.776288
 40
0.776288
 40
0.776288
 40
0.776288
 10
61.226954
 20
-42.745081
 30
0.0
 10
61.314535
 20
-42.731315
 30
0.0
 10
61.487100
 20
-42.704191
 30
0.0
 10
61.685937
 20
-42.505355
 30
0.0
 10
61.713060
 20
-42.332789
 30
0.0
 10
61.726826
 20
-42.245209
 30
0.0
 11
61.226954
 21
-42.745081
 31
0.0
 11
61.479220
 21
-42.676796
 31
0.0
 11
61.658541
 21
-42.497475
 31
0.0
 11
61.726826
 21
-42.245209
 31
0.0
  0
SPLINE
  5
219
100
AcDbEntity
  8
0
 62
7
100
AcDbSpline
 70
0
 71
3
 72
10
 73
6
 74
4
 40
0.000000
 40
0.000000
 40
0.000000
 40
0.000000
 40
0.174404
 40
0.346315
 40
0.520719
 40
0.520719
 40
0.520719
 40
0.520719
 10
50.801016
 20
-27.125097
 30
0.0
 10
50.859246
 20
-27.118990
 30
0.0
 10
50.974874
 20
-27.106865
 30
0.0
 10
51.131138
 20
-27.016628
 30
0.0
 10
51.199437
 20
-26.922542
 30
0.0
 10
51.233832
 20
-26.875161
 30
0.0
 11
50.801016
 21
-27.125097
 31
0.0
 11
50.972739
 21
-27.094632
 31
0.0
 11
51.121610
 21
-27.008664
 31
0.0
 11
51.233832
 21
-26.875161
 31
0.0
  0
LWPOLYLINE
  5
21a
100
AcDbEntity
  8
0
 62
7
100
AcDbPolyline
 90
2
 70
0
 10
65.105280
 20
-18.493415
 30
0.0
 10
65.105280
 20
-3.873175
 30
0.0
  0
LWPOLYLINE
  5
21b
100
AcDbEntity
  8
0
 62
7
100
AcDbPolyline
 90
2
 70
0
 10
57.030620
 20
-27.124335
 30
0.0
 10
61.226700
 20
-27.124335
 30
0.0
  0
LWPOLYLINE
  5
21c
100
AcDbEntity
  8
0
 62
7
100
AcDbPolyline
 90
2
 70
0
 10
51.666140
 20
-26.623955
 30
0.0
 10
56.164480
 20
-26.623955
 30
0.0
  0
LWPOLYLINE
  5
21d
100
AcDbEntity
  8
0
 62
7
100
AcDbPolyline
 90
2
 70
0
 10
61.226700
 20
-42.742795
 30
0.0
 10
46.606460
 20
-42.742795
 30
0.0
  0
LWPOLYLINE
  5
21e
100
AcDbEntity
  8
0
 62
7
100
AcDbPolyline
 90
2
 70
0
 10
61.724540
 20
-27.624715
 30
0.0
 10
61.724540
 20
-42.244955
 30
0.0
  0
LWPOLYLINE
  5
21f
100
AcDbEntity
  8
0
 62
7
100
AcDbPolyline
 90
2
 70
0
 10
46.606460
 20
-27.124335
 30
0.0
 10
50.800000
 20
-27.124335
 30
0.0
  0
SPLINE
  5
220
100
AcDbEntity
  8
0
 62
7
100
AcDbSpline
 70
0
 71
3
 72
13
 73
9
 74
7
 40
0.000000
 40
0.000000
 40
0.000000
 40
0.000000
 40
0.130929
 40
0.260775
 40
0.391704
 40
0.522634
 40
0.652479
 40
0.783409
 40
0.783409
 40
0.783409
 40
0.783409
 10
46.606968
 20
-27.125097
 30
0.0
 10
46.563196
 20
-27.128421
 30
0.0
 10
46.476016
 20
-27.135042
 30
0.0
 10
46.354048
 20
-27.187507
 30
0.0
 10
46.249090
 20
-27.267345
 30
0.0
 10
46.169252
 20
-27.372303
 30
0.0
 10
46.116787
 20
-27.494271
 30
0.0
 10
46.110166
 20
-27.581451
 30
0.0
 10
46.106842
 20
-27.625223
 30
0.0
 11
46.606968
 21
-27.125097
 31
0.0
 11
46.477161
 21
-27.142205
 31
0.0
 11
46.357193
 21
-27.191880
 31
0.0
 11
46.253288
 21
-27.271543
 31
0.0
 11
46.173625
 21
-27.375448
 31
0.0
 11
46.123950
 21
-27.495416
 31
0.0
 11
46.106842
 21
-27.625223
 31
0.0
  0
SPLINE
  5
221
100
AcDbEntity
  8
0
 62
7
100
AcDbSpline
 70
0
 71
3
 72
10
 73
6
 74
4
 40
0.000000
 40
0.000000
 40
0.000000
 40
0.000000
 40
0.174489
 40
0.346480
 40
0.520969
 40
0.520969
 40
0.520969
 40
0.520969
 10
56.599836
 20
-45.875123
 30
0.0
 10
56.634251
 20
-45.922526
 30
0.0
 10
56.702587
 20
-46.016654
 30
0.0
 10
56.858955
 20
-46.106898
 30
0.0
 10
56.974644
 20
-46.118976
 30
0.0
 10
57.032906
 20
-46.125059
 30
0.0
 11
56.599836
 21
-45.875123
 31
0.0
 11
56.712123
 21
-46.008681
 31
0.0
 11
56.861087
 21
-46.094652
 31
0.0
 11
57.032906
 21
-46.125059
 31
0.0
  0
SPLINE
  5
222
100
AcDbEntity
  8
0
 62
7
100
AcDbSpline
 70
0
 71
3
 72
10
 73
6
 74
4
 40
0.000000
 40
0.000000
 40
0.000000
 40
0.000000
 40
0.174404
 40
0.346315
 40
0.520719
 40
0.520719
 40
0.520719
 40
0.520719
 10
56.599836
 20
-45.875123
 30
0.0
 10
56.565441
 20
-45.827741
 30
0.0
 10
56.497142
 20
-45.733656
 30
0.0
 10
56.340878
 20
-45.643419
 30
0.0
 10
56.225250
 20
-45.631293
 30
0.0
 10
56.167020
 20
-45.625187
 30
0.0
 11
56.599836
 21
-45.875123
 31
0.0
 11
56.487614
 21
-45.741619
 31
0.0
 11
56.338743
 21
-45.655651
 31
0.0
 11
56.167020
 21
-45.625187
 31
0.0
  0
SPLINE
  5
223
100
AcDbEntity
  8
0
 62
7
100
AcDbSpline
 70
0
 71
3
 72
13
 73
9
 74
7
 40
0.000000
 40
0.000000
 40
0.000000
 40
0.000000
 40
0.130887
 40
0.260691
 40
0.391578
 40
0.522466
 40
0.652270
 40
0.783157
 40
0.783157
 40
0.783157
 40
0.783157
 10
46.106842
 20
-61.245171
 30
0.0
 10
46.110186
 20
-61.288927
 30
0.0
 10
46.116847
 20
-61.376076
 30
0.0
 10
46.169340
 20
-61.497983
 30
0.0
 10
46.249184
 20
-61.602883
 30
0.0
 10
46.354124
 20
-61.682673
 30
0.0
 10
46.476058
 20
-61.735104
 30
0.0
 10
46.563211
 20
-61.741721
 30
0.0
 10
46.606968
 20
-61.745043
 30
0.0
 11
46.106842
 21
-61.245171
 31
0.0
 11
46.124005
 21
-61.374928
 31
0.0
 11
46.173710
 21
-61.494839
 31
0.0
 11
46.253378
 21
-61.598686
 31
0.0
 11
46.357266
 21
-61.678302
 31
0.0
 11
46.477202
 21
-61.727946
 31
0.0
 11
46.606968
 21
-61.745043
 31
0.0
  0
SPLINE
  5
224
100
AcDbEntity
  8
0
 62
7
100
AcDbSpline
 70
0
 71
3
 72
10
 73
6
 74
4
 40
0.000000
 40
0.000000
 40
0.000000
 40
0.000000
 40
0.174489
 40
0.346480
 40
0.520969
 40
0.520969
 40
0.520969
 40
0.520969
 10
51.666902
 20
-45.625187
 30
0.0
 10
51.608640
 20
-45.631270
 30
0.0
 10
51.492951
 20
-45.643348
 30
0.0
 10
51.336583
 20
-45.733592
 30
0.0
 10
51.268247
 20
-45.827720
 30
0.0
 10
51.233832
 20
-45.875123
 30
0.0
 11
51.666902
 21
-45.625187
 31
0.0
 11
51.495083
 21
-45.655594
 31
0.0
 11
51.346119
 21
-45.741564
 31
0.0
 11
51.233832
 21
-45.875123
 31
0.0
  0
SPLINE
  5
225
100
AcDbEntity
  8
0
 62
7
100
AcDbSpline
 70
0
 71
3
 72
13
 73
9
 74
7
 40
0.000000
 40
0.000000
 40
0.000000
 40
0.000000
 40
0.130887
 40
0.260691
 40
0.391578
 40
0.522466
 40
0.652270
 40
0.783157
 40
0.783157
 40
0.783157
 40
0.783157
 10
61.726826
 20
-46.625185
 30
0.0
 10
61.723504
 20
-46.581428
 30
0.0
 10
61.716887
 20
-46.494275
 30
0.0
 10
61.664456
 20
-46.372341
 30
0.0
 10
61.584666
 20
-46.267401
 30
0.0
 10
61.479766
 20
-46.187557
 30
0.0
 10
61.357859
 20
-46.135064
 30
0.0
 10
61.270710
 20
-46.128403
 30
0.0
 10
61.226954
 20
-46.125059
 30
0.0
 11
61.726826
 21
-46.625185
 31
0.0
 11
61.709729
 21
-46.495419
 31
0.0
 11
61.660085
 21
-46.375483
 31
0.0
 11
61.580469
 21
-46.271595
 31
0.0
 11
61.476622
 21
-46.191926
 31
0.0
 11
61.356711
 21
-46.142222
 31
0.0
 11
61.226954
 21
-46.125059
 31
0.0
  0
SPLINE
  5
226
100
AcDbEntity
  8
0
 62
7
100
AcDbSpline
 70
0
 71
3
 72
10
 73
6
 74
4
 40
0.000000
 40
0.000000
 40
0.000000
 40
0.000000
 40
0.261345
 40
0.514943
 40
0.776288
 40
0.776288
 40
0.776288
 40
0.776288
 10
61.226954
 20
-61.745043
 30
0.0
 10
61.314535
 20
-61.731277
 30
0.0
 10
61.487100
 20
-61.704153
 30
0.0
 10
61.685937
 20
-61.505317
 30
0.0
 10
61.713060
 20
-61.332751
 30
0.0
 10
61.726826
 20
-61.245171
 30
0.0
 11
61.226954
 21
-61.745043
 31
0.0
 11
61.479220
 21
-61.676758
 31
0.0
 11
61.658541
 21
-61.497437
 31
0.0
 11
61.726826
 21
-61.245171
 31
0.0
  0
SPLINE
  5
227
100
AcDbEntity
  8
0
 62
7
100
AcDbSpline
 70
0
 71
3
 72
10
 73
6
 74
4
 40
0.000000
 40
0.000000
 40
0.000000
 40
0.000000
 40
0.174404
 40
0.346315
 40
0.520719
 40
0.520719
 40
0.520719
 40
0.520719
 10
50.801016
 20
-46.125059
 30
0.0
 10
50.859246
 20
-46.118952
 30
0.0
 10
50.974874
 20
-46.106827
 30
0.0
 10
51.131138
 20
-46.016590
 30
0.0
 10
51.199437
 20
-45.922504
 30
0.0
 10
51.233832
 20
-45.875123
 30
0.0
 11
50.801016
 21
-46.125059
 31
0.0
 11
50.972739
 21
-46.094594
 31
0.0
 11
51.121610
 21
-46.008626
 31
0.0
 11
51.233832
 21
-45.875123
 31
0.0
  0
LWPOLYLINE
  5
228
100
AcDbEntity
  8
0
 62
7
100
AcDbPolyline
 90
2
 70
0
 10
46.106080
 20
-42.244955
 30
0.0
 10
46.106080
 20
-27.624715
 30
0.0
  0
LWPOLYLINE
  5
229
100
AcDbEntity
  8
0
 62
7
100
AcDbPolyline
 90
2
 70
0
 10
57.030620
 20
-46.123535
 30
0.0
 10
61.226700
 20
-46.123535
 30
0.0
  0
LWPOLYLINE
  5
22a
100
AcDbEntity
  8
0
 62
7
100
AcDbPolyline
 90
2
 70
0
 10
51.666140
 20
-45.623155
 30
0.0
 10
56.164480
 20
-45.623155
 30
0.0
  0
LWPOLYLINE
  5
22b
100
AcDbEntity
  8
0
 62
7
100
AcDbPolyline
 90
2
 70
0
 10
61.226700
 20
-61.744535
 30
0.0
 10
46.606460
 20
-61.744535
 30
0.0
  0
LWPOLYLINE
  5
22c
100
AcDbEntity
  8
0
 62
7
100
AcDbPolyline
 90
2
 70
0
 10
61.724540
 20
-46.623915
 30
0.0
 10
61.724540
 20
-61.244155
 30
0.0
  0
LWPOLYLINE
  5
22d
100
AcDbEntity
  8
0
 62
7
100
AcDbPolyline
 90
2
 70
0
 10
46.606460
 20
-46.123535
 30
0.0
 10
50.800000
 20
-46.123535
 30
0.0
  0
SPLINE
  5
22e
100
AcDbEntity
  8
0
 62
7
100
AcDbSpline
 70
0
 71
3
 72
13
 73
9
 74
7
 40
0.000000
 40
0.000000
 40
0.000000
 40
0.000000
 40
0.130929
 40
0.260775
 40
0.391704
 40
0.522634
 40
0.652479
 40
0.783409
 40
0.783409
 40
0.783409
 40
0.783409
 10
46.606968
 20
-46.125059
 30
0.0
 10
46.563196
 20
-46.128383
 30
0.0
 10
46.476016
 20
-46.135004
 30
0.0
 10
46.354048
 20
-46.187469
 30
0.0
 10
46.249090
 20
-46.267307
 30
0.0
 10
46.169252
 20
-46.372265
 30
0.0
 10
46.116787
 20
-46.494233
 30
0.0
 10
46.110166
 20
-46.581413
 30
0.0
 10
46.106842
 20
-46.625185
 30
0.0
 11
46.606968
 21
-46.125059
 31
0.0
 11
46.477161
 21
-46.142167
 31
0.0
 11
46.357193
 21
-46.191842
 31
0.0
 11
46.253288
 21
-46.271505
 31
0.0
 11
46.173625
 21
-46.375410
 31
0.0
 11
46.123950
 21
-46.495378
 31
0.0
 11
46.106842
 21
-46.625185
 31
0.0
  0
SPLINE
  5
22f
100
AcDbEntity
  8
0
 62
7
100
AcDbSpline
 70
0
 71
3
 72
10
 73
6
 74
4
 40
0.000000
 40
0.000000
 40
0.000000
 40
0.000000
 40
0.174504
 40
0.346509
 40
0.521013
 40
0.521013
 40
0.521013
 40
0.521013
 10
56.599836
 20
-7.875123
 30
0.0
 10
56.634246
 20
-7.922536
 30
0.0
 10
56.702572
 20
-8.016683
 30
0.0
 10
56.858942
 20
-8.106955
 30
0.0
 10
56.974640
 20
-8.119046
 30
0.0
 10
57.032906
 20
-8.125135
 30
0.0
 11
56.599836
 21
-7.875123
 31
0.0
 11
56.712111
 21
-8.008711
 31
0.0
 11
56.861076
 21
-8.094708
 31
0.0
 11
57.032906
 21
-8.125135
 31
0.0
  0
SPLINE
  5
230
100
AcDbEntity
  8
0
 62
7
100
AcDbSpline
 70
0
 71
3
 72
10
 73
6
 74
4
 40
0.000000
 40
0.000000
 40
0.000000
 40
0.000000
 40
0.174414
 40
0.346334
 40
0.520748
 40
0.520748
 40
0.520748
 40
0.520748
 10
56.599836
 20
-7.875123
 30
0.0
 10
56.565444
 20
-7.827735
 30
0.0
 10
56.497152
 20
-7.733636
 30
0.0
 10
56.340886
 20
-7.643380
 30
0.0
 10
56.225253
 20
-7.631246
 30
0.0
 10
56.167020
 20
-7.625136
 30
0.0
 11
56.599836
 21
-7.875123
 31
0.0
 11
56.487622
 21
-7.741600
 31
0.0
 11
56.338750
 21
-7.655614
 31
0.0
 11
56.167020
 21
-7.625136
 31
0.0
  0
SPLINE
  5
231
100
AcDbEntity
  8
0
 62
7
100
AcDbSpline
 70
0
 71
3
 72
13
 73
9
 74
7
 40
0.000000
 40
0.000000
 40
0.000000
 40
0.000000
 40
0.130908
 40
0.260733
 40
0.391641
 40
0.522550
 40
0.652374
 40
0.783283
 40
0.783283
 40
0.783283
 40
0.783283
 10
46.106842
 20
-23.245120
 30
0.0
 10
46.110176
 20
-23.288884
 30
0.0
 10
46.116817
 20
-23.376049
 30
0.0
 10
46.169296
 20
-23.497986
 30
0.0
 10
46.249137
 20
-23.602915
 30
0.0
 10
46.354086
 20
-23.682729
 30
0.0
 10
46.476037
 20
-23.735177
 30
0.0
 10
46.563204
 20
-23.741796
 30
0.0
 10
46.606968
 20
-23.745119
 30
0.0
 11
46.106842
 21
-23.245120
 31
0.0
 11
46.123978
 21
-23.374902
 31
0.0
 11
46.173667
 21
-23.494841
 31
0.0
 11
46.253333
 21
-23.598717
 31
0.0
 11
46.357230
 21
-23.678357
 31
0.0
 11
46.477182
 21
-23.728016
 31
0.0
 11
46.606968
 21
-23.745119
 31
0.0
  0
SPLINE
  5
232
100
AcDbEntity
  8
0
 62
7
100
AcDbSpline
 70
0
 71
3
 72
10
 73
6
 74
4
 40
0.000000
 40
0.000000
 40
0.000000
 40
0.000000
 40
0.174499
 40
0.346499
 40
0.520998
 40
0.520998
 40
0.520998
 40
0.520998
 10
51.666902
 20
-7.625136
 30
0.0
 10
51.608637
 20
-7.631223
 30
0.0
 10
51.492942
 20
-7.643309
 30
0.0
 10
51.336573
 20
-7.733572
 30
0.0
 10
51.268243
 20
-7.827713
 30
0.0
 10
51.233832
 20
-7.875123
 30
0.0
 11
51.666902
 21
-7.625136
 31
0.0
 11
51.495075
 21
-7.655556
 31
0.0
 11
51.346111
 21
-7.741545
 31
0.0
 11
51.233832
 21
-7.875123
 31
0.0
  0
SPLINE
  5
233
100
AcDbEntity
  8
0
 62
7
100
AcDbSpline
 70
0
 71
3
 72
10
 73
6
 74
4
 40
0.000000
 40
0.000000
 40
0.000000
 40
0.000000
 40
0.261387
 40
0.515023
 40
0.776410
 40
0.776410
 40
0.776410
 40
0.776410
 10
61.726826
 20
-8.625134
 30
0.0
 10
61.713078
 20
-8.537535
 30
0.0
 10
61.685989
 20
-8.364936
 30
0.0
 10
61.487141
 20
-8.166038
 30
0.0
 10
61.314549
 20
-8.138905
 30
0.0
 10
61.226954
 20
-8.125135
 30
0.0
 11
61.726826
 21
-8.625134
 31
0.0
 11
61.658583
 21
-8.372812
 31
0.0
 11
61.479258
 21
-8.193442
 31
0.0
 11
61.226954
 21
-8.125135
 31
0.0
  0
SPLINE
  5
234
100
AcDbEntity
  8
0
 62
7
100
AcDbSpline
 70
0
 71
3
 72
10
 73
6
 74
4
 40
0.000000
 40
0.000000
 40
0.000000
 40
0.000000
 40
0.261387
 40
0.515023
 40
0.776410
 40
0.776410
 40
0.776410
 40
0.776410
 10
61.226954
 20
-23.745119
 30
0.0
 10
61.314549
 20
-23.731349
 30
0.0
 10
61.487141
 20
-23.704216
 30
0.0
 10
61.685989
 20
-23.505318
 30
0.0
 10
61.713078
 20
-23.332718
 30
0.0
 10
61.726826
 20
-23.245120
 30
0.0
 11
61.226954
 21
-23.745119
 31
0.0
 11
61.479258
 21
-23.676812
 31
0.0
 11
61.658583
 21
-23.497441
 31
0.0
 11
61.726826
 21
-23.245120
 31
0.0
  0
SPLINE
  5
235
100
AcDbEntity
  8
0
 62
7
100
AcDbSpline
 70
0
 71
3
 72
10
 73
6
 74
4
 40
0.000000
 40
0.000000
 40
0.000000
 40
0.000000
 40
0.174419
 40
0.346343
 40
0.520762
 40
0.520762
 40
0.520762
 40
0.520762
 10
50.801016
 20
-8.125135
 30
0.0
 10
50.859251
 20
-8.119022
 30
0.0
 10
50.974887
 20
-8.106884
 30
0.0
 10
51.131153
 20
-8.016619
 30
0.0
 10
51.199442
 20
-7.922514
 30
0.0
 10
51.233832
 20
-7.875123
 30
0.0
 11
50.801016
 21
-8.125135
 31
0.0
 11
50.972750
 21
-8.094650
 31
0.0
 11
51.121622
 21
-8.008655
 31
0.0
 11
51.233832
 21
-7.875123
 31
0.0
  0
LWPOLYLINE
  5
236
100
AcDbEntity
  8
0
 62
7
100
AcDbPolyline
 90
2
 70
0
 10
46.106080
 20
-61.244155
 30
0.0
 10
46.106080
 20
-46.623915
 30
0.0
  0
LWPOLYLINE
  5
237
100
AcDbEntity
  8
0
 62
7
100
AcDbPolyline
 90
2
 70
0
 10
57.030620
 20
-8.122595
 30
0.0
 10
61.226700
 20
-8.122595
 30
0.0
  0
LWPOLYLINE
  5
238
100
AcDbEntity
  8
0
 62
7
100
AcDbPolyline
 90
2
 70
0
 10
51.666140
 20
-7.624755
 30
0.0
 10
56.164480
 20
-7.624755
 30
0.0
  0
LWPOLYLINE
  5
239
100
AcDbEntity
  8
0
 62
7
100
AcDbPolyline
 90
2
 70
0
 10
61.226700
 20
-23.743595
 30
0.0
 10
46.606460
 20
-23.743595
 30
0.0
  0
LWPOLYLINE
  5
23a
100
AcDbEntity
  8
0
 62
7
100
AcDbPolyline
 90
2
 70
0
 10
61.724540
 20
-8.622975
 30
0.0
 10
61.724540
 20
-23.243215
 30
0.0
  0
LWPOLYLINE
  5
23b
100
AcDbEntity
  8
0
 62
7
100
AcDbPolyline
 90
2
 70
0
 10
46.606460
 20
-8.122595
 30
0.0
 10
50.800000
 20
-8.122595
 30
0.0
  0
SPLINE
  5
23c
100
AcDbEntity
  8
0
 62
7
100
AcDbSpline
 70
0
 71
3
 72
13
 73
9
 74
7
 40
0.000000
 40
0.000000
 40
0.000000
 40
0.000000
 40
0.130908
 40
0.260733
 40
0.391641
 40
0.522550
 40
0.652374
 40
0.783283
 40
0.783283
 40
0.783283
 40
0.783283
 10
46.606968
 20
-8.125135
 30
0.0
 10
46.563204
 20
-8.128458
 30
0.0
 10
46.476037
 20
-8.135077
 30
0.0
 10
46.354086
 20
-8.187525
 30
0.0
 10
46.249137
 20
-8.267339
 30
0.0
 10
46.169296
 20
-8.372268
 30
0.0
 10
46.116817
 20
-8.494205
 30
0.0
 10
46.110176
 20
-8.581370
 30
0.0
 10
46.106842
 20
-8.625134
 30
0.0
 11
46.606968
 21
-8.125135
 31
0.0
 11
46.477182
 21
-8.142238
 31
0.0
 11
46.357230
 21
-8.191897
 31
0.0
 11
46.253333
 21
-8.271536
 31
0.0
 11
46.173667
 21
-8.375413
 31
0.0
 11
46.123978
 21
-8.495352
 31
0.0
 11
46.106842
 21
-8.625134
 31
0.0
  0
SPLINE
  5
23d
100
AcDbEntity
  8
0
 62
7
100
AcDbSpline
 70
0
 71
3
 72
10
 73
6
 74
4
 40
0.000000
 40
0.000000
 40
0.000000
 40
0.000000
 40
0.174489
 40
0.346480
 40
0.520969
 40
0.520969
 40
0.520969
 40
0.520969
 10
37.599874
 20
-45.875123
 30
0.0
 10
37.634289
 20
-45.922526
 30
0.0
 10
37.702625
 20
-46.016654
 30
0.0
 10
37.858993
 20
-46.106898
 30
0.0
 10
37.974682
 20
-46.118976
 30
0.0
 10
38.032944
 20
-46.125059
 30
0.0
 11
37.599874
 21
-45.875123
 31
0.0
 11
37.712161
 21
-46.008681
 31
0.0
 11
37.861125
 21
-46.094652
 31
0.0
 11
38.032944
 21
-46.125059
 31
0.0
  0
SPLINE
  5
23e
100
AcDbEntity
  8
0
 62
7
100
AcDbSpline
 70
0
 71
3
 72
10
 73
6
 74
4
 40
0.000000
 40
0.000000
 40
0.000000
 40
0.000000
 40
0.174404
 40
0.346315
 40
0.520719
 40
0.520719
 40
0.520719
 40
0.520719
 10
37.599874
 20
-45.875123
 30
0.0
 10
37.565479
 20
-45.827741
 30
0.0
 10
37.497180
 20
-45.733656
 30
0.0
 10
37.340916
 20
-45.643419
 30
0.0
 10
37.225288
 20
-45.631293
 30
0.0
 10
37.167058
 20
-45.625187
 30
0.0
 11
37.599874
 21
-45.875123
 31
0.0
 11
37.487652
 21
-45.741619
 31
0.0
 11
37.338781
 21
-45.655651
 31
0.0
 11
37.167058
 21
-45.625187
 31
0.0
  0
SPLINE
  5
23f
100
AcDbEntity
  8
0
 62
7
100
AcDbSpline
 70
0
 71
3
 72
13
 73
9
 74
7
 40
0.000000
 40
0.000000
 40
0.000000
 40
0.000000
 40
0.130887
 40
0.260691
 40
0.391578
 40
0.522466
 40
0.652270
 40
0.783157
 40
0.783157
 40
0.783157
 40
0.783157
 10
27.106880
 20
-61.245171
 30
0.0
 10
27.110224
 20
-61.288927
 30
0.0
 10
27.116885
 20
-61.376076
 30
0.0
 10
27.169378
 20
-61.497983
 30
0.0
 10
27.249222
 20
-61.602883
 30
0.0
 10
27.354162
 20
-61.682673
 30
0.0
 10
27.476096
 20
-61.735104
 30
0.0
 10
27.563249
 20
-61.741721
 30
0.0
 10
27.607006
 20
-61.745043
 30
0.0
 11
27.106880
 21
-61.245171
 31
0.0
 11
27.124043
 21
-61.374928
 31
0.0
 11
27.173748
 21
-61.494839
 31
0.0
 11
27.253416
 21
-61.598686
 31
0.0
 11
27.357304
 21
-61.678302
 31
0.0
 11
27.477240
 21
-61.727946
 31
0.0
 11
27.607006
 21
-61.745043
 31
0.0
  0
SPLINE
  5
240
100
AcDbEntity
  8
0
 62
7
100
AcDbSpline
 70
0
 71
3
 72
10
 73
6
 74
4
 40
0.000000
 40
0.000000
 40
0.000000
 40
0.000000
 40
0.174489
 40
0.346480
 40
0.520969
 40
0.520969
 40
0.520969
 40
0.520969
 10
32.666940
 20
-45.625187
 30
0.0
 10
32.608678
 20
-45.631270
 30
0.0
 10
32.492989
 20
-45.643348
 30
0.0
 10
32.336621
 20
-45.733592
 30
0.0
 10
32.268285
 20
-45.827720
 30
0.0
 10
32.233870
 20
-45.875123
 30
0.0
 11
32.666940
 21
-45.625187
 31
0.0
 11
32.495121
 21
-45.655594
 31
0.0
 11
32.346157
 21
-45.741564
 31
0.0
 11
32.233870
 21
-45.875123
 31
0.0
  0
SPLINE
  5
241
100
AcDbEntity
  8
0
 62
7
100
AcDbSpline
 70
0
 71
3
 72
13
 73
9
 74
7
 40
0.000000
 40
0.000000
 40
0.000000
 40
0.000000
 40
0.130887
 40
0.260691
 40
0.391578
 40
0.522466
 40
0.652270
 40
0.783157
 40
0.783157
 40
0.783157
 40
0.783157
 10
42.726864
 20
-46.625185
 30
0.0
 10
42.723542
 20
-46.581428
 30
0.0
 10
42.716925
 20
-46.494275
 30
0.0
 10
42.664494
 20
-46.372341
 30
0.0
 10
42.584704
 20
-46.267401
 30
0.0
 10
42.479804
 20
-46.187557
 30
0.0
 10
42.357897
 20
-46.135064
 30
0.0
 10
42.270748
 20
-46.128403
 30
0.0
 10
42.226992
 20
-46.125059
 30
0.0
 11
42.726864
 21
-46.625185
 31
0.0
 11
42.709767
 21
-46.495419
 31
0.0
 11
42.660123
 21
-46.375483
 31
0.0
 11
42.580507
 21
-46.271595
 31
0.0
 11
42.476660
 21
-46.191926
 31
0.0
 11
42.356749
 21
-46.142222
 31
0.0
 11
42.226992
 21
-46.125059
 31
0.0
  0
SPLINE
  5
242
100
AcDbEntity
  8
0
 62
7
100
AcDbSpline
 70
0
 71
3
 72
10
 73
6
 74
4
 40
0.000000
 40
0.000000
 40
0.000000
 40
0.000000
 40
0.261345
 40
0.514943
 40
0.776288
 40
0.776288
 40
0.776288
 40
0.776288
 10
42.226992
 20
-61.745043
 30
0.0
 10
42.314573
 20
-61.731277
 30
0.0
 10
42.487138
 20
-61.704153
 30
0.0
 10
42.685975
 20
-61.505317
 30
0.0
 10
42.713098
 20
-61.332751
 30
0.0
 10
42.726864
 20
-61.245171
 30
0.0
 11
42.226992
 21
-61.745043
 31
0.0
 11
42.479258
 21
-61.676758
 31
0.0
 11
42.658579
 21
-61.497437
 31
0.0
 11
42.726864
 21
-61.245171
 31
0.0
  0
SPLINE
  5
243
100
AcDbEntity
  8
0
 62
7
100
AcDbSpline
 70
0
 71
3
 72
10
 73
6
 74
4
 40
0.000000
 40
0.000000
 40
0.000000
 40
0.000000
 40
0.174489
 40
0.346480
 40
0.520969
 40
0.520969
 40
0.520969
 40
0.520969
 10
31.800800
 20
-46.125059
 30
0.0
 10
31.859062
 20
-46.118976
 30
0.0
 10
31.974751
 20
-46.106898
 30
0.0
 10
32.131119
 20
-46.016654
 30
0.0
 10
32.199455
 20
-45.922526
 30
0.0
 10
32.233870
 20
-45.875123
 30
0.0
 11
31.800800
 21
-46.125059
 31
0.0
 11
31.972619
 21
-46.094652
 31
0.0
 11
32.121583
 21
-46.008681
 31
0.0
 11
32.233870
 21
-45.875123
 31
0.0
  0
LWPOLYLINE
  5
244
100
AcDbEntity
  8
0
 62
7
100
AcDbPolyline
 90
2
 70
0
 10
46.106080
 20
-23.243215
 30
0.0
 10
46.106080
 20
-8.622975
 30
0.0
  0
LWPOLYLINE
  5
245
100
AcDbEntity
  8
0
 62
7
100
AcDbPolyline
 90
2
 70
0
 10
38.031420
 20
-46.123535
 30
0.0
 10
42.224960
 20
-46.123535
 30
0.0
  0
LWPOLYLINE
  5
246
100
AcDbEntity
  8
0
 62
7
100
AcDbPolyline
 90
2
 70
0
 10
32.664400
 20
-45.623155
 30
0.0
 10
37.165280
 20
-45.623155
 30
0.0
  0
LWPOLYLINE
  5
247
100
AcDbEntity
  8
0
 62
7
100
AcDbPolyline
 90
2
 70
0
 10
42.224960
 20
-61.744535
 30
0.0
 10
27.604720
 20
-61.744535
 30
0.0
  0
LWPOLYLINE
  5
248
100
AcDbEntity
  8
0
 62
7
100
AcDbPolyline
 90
2
 70
0
 10
42.725340
 20
-46.623915
 30
0.0
 10
42.725340
 20
-61.244155
 30
0.0
  0
LWPOLYLINE
  5
249
100
AcDbEntity
  8
0
 62
7
100
AcDbPolyline
 90
2
 70
0
 10
27.604720
 20
-46.123535
 30
0.0
 10
31.800800
 20
-46.123535
 30
0.0
  0
SPLINE
  5
24a
100
AcDbEntity
  8
0
 62
7
100
AcDbSpline
 70
0
 71
3
 72
13
 73
9
 74
7
 40
0.000000
 40
0.000000
 40
0.000000
 40
0.000000
 40
0.130929
 40
0.260775
 40
0.391704
 40
0.522634
 40
0.652479
 40
0.783409
 40
0.783409
 40
0.783409
 40
0.783409
 10
27.607006
 20
-46.125059
 30
0.0
 10
27.563234
 20
-46.128383
 30
0.0
 10
27.476054
 20
-46.135004
 30
0.0
 10
27.354086
 20
-46.187469
 30
0.0
 10
27.249128
 20
-46.267307
 30
0.0
 10
27.169290
 20
-46.372265
 30
0.0
 10
27.116825
 20
-46.494233
 30
0.0
 10
27.110204
 20
-46.581413
 30
0.0
 10
27.106880
 20
-46.625185
 30
0.0
 11
27.607006
 21
-46.125059
 31
0.0
 11
27.477199
 21
-46.142167
 31
0.0
 11
27.357231
 21
-46.191842
 31
0.0
 11
27.253326
 21
-46.271505
 31
0.0
 11
27.173663
 21
-46.375410
 31
0.0
 11
27.123988
 21
-46.495378
 31
0.0
 11
27.106880
 21
-46.625185
 31
0.0
  0
SPLINE
  5
24b
100
AcDbEntity
  8
0
 62
7
100
AcDbSpline
 70
0
 71
3
 72
10
 73
6
 74
4
 40
0.000000
 40
0.000000
 40
0.000000
 40
0.000000
 40
0.174489
 40
0.346480
 40
0.520969
 40
0.520969
 40
0.520969
 40
0.520969
 10
37.599874
 20
-26.875161
 30
0.0
 10
37.634289
 20
-26.922564
 30
0.0
 10
37.702625
 20
-27.016692
 30
0.0
 10
37.858993
 20
-27.106936
 30
0.0
 10
37.974682
 20
-27.119014
 30
0.0
 10
38.032944
 20
-27.125097
 30
0.0
 11
37.599874
 21
-26.875161
 31
0.0
 11
37.712161
 21
-27.008719
 31
0.0
 11
37.861125
 21
-27.094690
 31
0.0
 11
38.032944
 21
-27.125097
 31
0.0
  0
SPLINE
  5
24c
100
AcDbEntity
  8
0
 62
7
100
AcDbSpline
 70
0
 71
3
 72
10
 73
6
 74
4
 40
0.000000
 40
0.000000
 40
0.000000
 40
0.000000
 40
0.174404
 40
0.346315
 40
0.520719
 40
0.520719
 40
0.520719
 40
0.520719
 10
37.599874
 20
-26.875161
 30
0.0
 10
37.565479
 20
-26.827779
 30
0.0
 10
37.497180
 20
-26.733694
 30
0.0
 10
37.340916
 20
-26.643457
 30
0.0
 10
37.225288
 20
-26.631331
 30
0.0
 10
37.167058
 20
-26.625225
 30
0.0
 11
37.599874
 21
-26.875161
 31
0.0
 11
37.487652
 21
-26.741657
 31
0.0
 11
37.338781
 21
-26.655689
 31
0.0
 11
37.167058
 21
-26.625225
 31
0.0
  0
SPLINE
  5
24d
100
AcDbEntity
  8
0
 62
7
100
AcDbSpline
 70
0
 71
3
 72
13
 73
9
 74
7
 40
0.000000
 40
0.000000
 40
0.000000
 40
0.000000
 40
0.130887
 40
0.260691
 40
0.391578
 40
0.522466
 40
0.652270
 40
0.783157
 40
0.783157
 40
0.783157
 40
0.783157
 10
27.106880
 20
-42.245209
 30
0.0
 10
27.110224
 20
-42.288965
 30
0.0
 10
27.116885
 20
-42.376114
 30
0.0
 10
27.169378
 20
-42.498021
 30
0.0
 10
27.249222
 20
-42.602921
 30
0.0
 10
27.354162
 20
-42.682711
 30
0.0
 10
27.476096
 20
-42.735142
 30
0.0
 10
27.563249
 20
-42.741759
 30
0.0
 10
27.607006
 20
-42.745081
 30
0.0
 11
27.106880
 21
-42.245209
 31
0.0
 11
27.124043
 21
-42.374966
 31
0.0
 11
27.173748
 21
-42.494877
 31
0.0
 11
27.253416
 21
-42.598724
 31
0.0
 11
27.357304
 21
-42.678340
 31
0.0
 11
27.477240
 21
-42.727984
 31
0.0
 11
27.607006
 21
-42.745081
 31
0.0
  0
SPLINE
  5
24e
100
AcDbEntity
  8
0
 62
7
100
AcDbSpline
 70
0
 71
3
 72
10
 73
6
 74
4
 40
0.000000
 40
0.000000
 40
0.000000
 40
0.000000
 40
0.174489
 40
0.346480
 40
0.520969
 40
0.520969
 40
0.520969
 40
0.520969
 10
32.666940
 20
-26.625225
 30
0.0
 10
32.608678
 20
-26.631308
 30
0.0
 10
32.492989
 20
-26.643386
 30
0.0
 10
32.336621
 20
-26.733630
 30
0.0
 10
32.268285
 20
-26.827758
 30
0.0
 10
32.233870
 20
-26.875161
 30
0.0
 11
32.666940
 21
-26.625225
 31
0.0
 11
32.495121
 21
-26.655632
 31
0.0
 11
32.346157
 21
-26.741602
 31
0.0
 11
32.233870
 21
-26.875161
 31
0.0
  0
SPLINE
  5
24f
100
AcDbEntity
  8
0
 62
7
100
AcDbSpline
 70
0
 71
3
 72
13
 73
9
 74
7
 40
0.000000
 40
0.000000
 40
0.000000
 40
0.000000
 40
0.130887
 40
0.260691
 40
0.391578
 40
0.522466
 40
0.652270
 40
0.783157
 40
0.783157
 40
0.783157
 40
0.783157
 10
42.726864
 20
-27.625223
 30
0.0
 10
42.723542
 20
-27.581466
 30
0.0
 10
42.716925
 20
-27.494313
 30
0.0
 10
42.664494
 20
-27.372379
 30
0.0
 10
42.584704
 20
-27.267439
 30
0.0
 10
42.479804
 20
-27.187595
 30
0.0
 10
42.357897
 20
-27.135102
 30
0.0
 10
42.270748
 20
-27.128441
 30
0.0
 10
42.226992
 20
-27.125097
 30
0.0
 11
42.726864
 21
-27.625223
 31
0.0
 11
42.709767
 21
-27.495457
 31
0.0
 11
42.660123
 21
-27.375521
 31
0.0
 11
42.580507
 21
-27.271633
 31
0.0
 11
42.476660
 21
-27.191964
 31
0.0
 11
42.356749
 21
-27.142260
 31
0.0
 11
42.226992
 21
-27.125097
 31
0.0
  0
SPLINE
  5
250
100
AcDbEntity
  8
0
 62
7
100
AcDbSpline
 70
0
 71
3
 72
10
 73
6
 74
4
 40
0.000000
 40
0.000000
 40
0.000000
 40
0.000000
 40
0.261345
 40
0.514943
 40
0.776288
 40
0.776288
 40
0.776288
 40
0.776288
 10
42.226992
 20
-42.745081
 30
0.0
 10
42.314573
 20
-42.731315
 30
0.0
 10
42.487138
 20
-42.704191
 30
0.0
 10
42.685975
 20
-42.505355
 30
0.0
 10
42.713098
 20
-42.332789
 30
0.0
 10
42.726864
 20
-42.245209
 30
0.0
 11
42.226992
 21
-42.745081
 31
0.0
 11
42.479258
 21
-42.676796
 31
0.0
 11
42.658579
 21
-42.497475
 31
0.0
 11
42.726864
 21
-42.245209
 31
0.0
  0
SPLINE
  5
251
100
AcDbEntity
  8
0
 62
7
100
AcDbSpline
 70
0
 71
3
 72
10
 73
6
 74
4
 40
0.000000
 40
0.000000
 40
0.000000
 40
0.000000
 40
0.174489
 40
0.346480
 40
0.520969
 40
0.520969
 40
0.520969
 40
0.520969
 10
31.800800
 20
-27.125097
 30
0.0
 10
31.859062
 20
-27.119014
 30
0.0
 10
31.974751
 20
-27.106936
 30
0.0
 10
32.131119
 20
-27.016692
 30
0.0
 10
32.199455
 20
-26.922564
 30
0.0
 10
32.233870
 20
-26.875161
 30
0.0
 11
31.800800
 21
-27.125097
 31
0.0
 11
31.972619
 21
-27.094690
 31
0.0
 11
32.121583
 21
-27.008719
 31
0.0
 11
32.233870
 21
-26.875161
 31
0.0
  0
LWPOLYLINE
  5
252
100
AcDbEntity
  8
0
 62
7
100
AcDbPolyline
 90
2
 70
0
 10
27.106880
 20
-61.244155
 30
0.0
 10
27.106880
 20
-46.623915
 30
0.0
  0
LWPOLYLINE
  5
253
100
AcDbEntity
  8
0
 62
7
100
AcDbPolyline
 90
2
 70
0
 10
38.031420
 20
-27.124335
 30
0.0
 10
42.224960
 20
-27.124335
 30
0.0
  0
LWPOLYLINE
  5
254
100
AcDbEntity
  8
0
 62
7
100
AcDbPolyline
 90
2
 70
0
 10
32.664400
 20
-26.623955
 30
0.0
 10
37.165280
 20
-26.623955
 30
0.0
  0
LWPOLYLINE
  5
255
100
AcDbEntity
  8
0
 62
7
100
AcDbPolyline
 90
2
 70
0
 10
42.224960
 20
-42.742795
 30
0.0
 10
27.604720
 20
-42.742795
 30
0.0
  0
LWPOLYLINE
  5
256
100
AcDbEntity
  8
0
 62
7
100
AcDbPolyline
 90
2
 70
0
 10
42.725340
 20
-27.624715
 30
0.0
 10
42.725340
 20
-42.244955
 30
0.0
  0
LWPOLYLINE
  5
257
100
AcDbEntity
  8
0
 62
7
100
AcDbPolyline
 90
2
 70
0
 10
27.604720
 20
-27.124335
 30
0.0
 10
31.800800
 20
-27.124335
 30
0.0
  0
SPLINE
  5
258
100
AcDbEntity
  8
0
 62
7
100
AcDbSpline
 70
0
 71
3
 72
13
 73
9
 74
7
 40
0.000000
 40
0.000000
 40
0.000000
 40
0.000000
 40
0.130929
 40
0.260775
 40
0.391704
 40
0.522634
 40
0.652479
 40
0.783409
 40
0.783409
 40
0.783409
 40
0.783409
 10
27.607006
 20
-27.125097
 30
0.0
 10
27.563234
 20
-27.128421
 30
0.0
 10
27.476054
 20
-27.135042
 30
0.0
 10
27.354086
 20
-27.187507
 30
0.0
 10
27.249128
 20
-27.267345
 30
0.0
 10
27.169290
 20
-27.372303
 30
0.0
 10
27.116825
 20
-27.494271
 30
0.0
 10
27.110204
 20
-27.581451
 30
0.0
 10
27.106880
 20
-27.625223
 30
0.0
 11
27.607006
 21
-27.125097
 31
0.0
 11
27.477199
 21
-27.142205
 31
0.0
 11
27.357231
 21
-27.191880
 31
0.0
 11
27.253326
 21
-27.271543
 31
0.0
 11
27.173663
 21
-27.375448
 31
0.0
 11
27.123988
 21
-27.495416
 31
0.0
 11
27.106880
 21
-27.625223
 31
0.0
  0
SPLINE
  5
259
100
AcDbEntity
  8
0
 62
7
100
AcDbSpline
 70
0
 71
3
 72
10
 73
6
 74
4
 40
0.000000
 40
0.000000
 40
0.000000
 40
0.000000
 40
0.174504
 40
0.346509
 40
0.521013
 40
0.521013
 40
0.521013
 40
0.521013
 10
37.599874
 20
-7.875123
 30
0.0
 10
37.634284
 20
-7.922536
 30
0.0
 10
37.702610
 20
-8.016683
 30
0.0
 10
37.858980
 20
-8.106955
 30
0.0
 10
37.974678
 20
-8.119046
 30
0.0
 10
38.032944
 20
-8.125135
 30
0.0
 11
37.599874
 21
-7.875123
 31
0.0
 11
37.712149
 21
-8.008711
 31
0.0
 11
37.861114
 21
-8.094708
 31
0.0
 11
38.032944
 21
-8.125135
 31
0.0
  0
SPLINE
  5
25a
100
AcDbEntity
  8
0
 62
7
100
AcDbSpline
 70
0
 71
3
 72
10
 73
6
 74
4
 40
0.000000
 40
0.000000
 40
0.000000
 40
0.000000
 40
0.174414
 40
0.346334
 40
0.520748
 40
0.520748
 40
0.520748
 40
0.520748
 10
37.599874
 20
-7.875123
 30
0.0
 10
37.565482
 20
-7.827735
 30
0.0
 10
37.497190
 20
-7.733636
 30
0.0
 10
37.340924
 20
-7.643380
 30
0.0
 10
37.225291
 20
-7.631246
 30
0.0
 10
37.167058
 20
-7.625136
 30
0.0
 11
37.599874
 21
-7.875123
 31
0.0
 11
37.487660
 21
-7.741600
 31
0.0
 11
37.338788
 21
-7.655614
 31
0.0
 11
37.167058
 21
-7.625136
 31
0.0
  0
SPLINE
  5
25b
100
AcDbEntity
  8
0
 62
7
100
AcDbSpline
 70
0
 71
3
 72
13
 73
9
 74
7
 40
0.000000
 40
0.000000
 40
0.000000
 40
0.000000
 40
0.130908
 40
0.260733
 40
0.391641
 40
0.522550
 40
0.652374
 40
0.783283
 40
0.783283
 40
0.783283
 40
0.783283
 10
27.106880
 20
-23.245120
 30
0.0
 10
27.110214
 20
-23.288884
 30
0.0
 10
27.116855
 20
-23.376049
 30
0.0
 10
27.169334
 20
-23.497986
 30
0.0
 10
27.249175
 20
-23.602915
 30
0.0
 10
27.354124
 20
-23.682729
 30
0.0
 10
27.476075
 20
-23.735177
 30
0.0
 10
27.563242
 20
-23.741796
 30
0.0
 10
27.607006
 20
-23.745119
 30
0.0
 11
27.106880
 21
-23.245120
 31
0.0
 11
27.124016
 21
-23.374902
 31
0.0
 11
27.173705
 21
-23.494841
 31
0.0
 11
27.253371
 21
-23.598717
 31
0.0
 11
27.357268
 21
-23.678357
 31
0.0
 11
27.477220
 21
-23.728016
 31
0.0
 11
27.607006
 21
-23.745119
 31
0.0
  0
SPLINE
  5
25c
100
AcDbEntity
  8
0
 62
7
100
AcDbSpline
 70
0
 71
3
 72
10
 73
6
 74
4
 40
0.000000
 40
0.000000
 40
0.000000
 40
0.000000
 40
0.174499
 40
0.346499
 40
0.520998
 40
0.520998
 40
0.520998
 40
0.520998
 10
32.666940
 20
-7.625136
 30
0.0
 10
32.608675
 20
-7.631223
 30
0.0
 10
32.492980
 20
-7.643309
 30
0.0
 10
32.336611
 20
-7.733572
 30
0.0
 10
32.268281
 20
-7.827713
 30
0.0
 10
32.233870
 20
-7.875123
 30
0.0
 11
32.666940
 21
-7.625136
 31
0.0
 11
32.495113
 21
-7.655556
 31
0.0
 11
32.346149
 21
-7.741545
 31
0.0
 11
32.233870
 21
-7.875123
 31
0.0
  0
SPLINE
  5
25d
100
AcDbEntity
  8
0
 62
7
100
AcDbSpline
 70
0
 71
3
 72
10
 73
6
 74
4
 40
0.000000
 40
0.000000
 40
0.000000
 40
0.000000
 40
0.261387
 40
0.515023
 40
0.776410
 40
0.776410
 40
0.776410
 40
0.776410
 10
42.726864
 20
-8.625134
 30
0.0
 10
42.713116
 20
-8.537535
 30
0.0
 10
42.686027
 20
-8.364936
 30
0.0
 10
42.487179
 20
-8.166038
 30
0.0
 10
42.314587
 20
-8.138905
 30
0.0
 10
42.226992
 20
-8.125135
 30
0.0
 11
42.726864
 21
-8.625134
 31
0.0
 11
42.658621
 21
-8.372812
 31
0.0
 11
42.479296
 21
-8.193442
 31
0.0
 11
42.226992
 21
-8.125135
 31
0.0
  0
SPLINE
  5
25e
100
AcDbEntity
  8
0
 62
7
100
AcDbSpline
 70
0
 71
3
 72
10
 73
6
 74
4
 40
0.000000
 40
0.000000
 40
0.000000
 40
0.000000
 40
0.261387
 40
0.515023
 40
0.776410
 40
0.776410
 40
0.776410
 40
0.776410
 10
42.226992
 20
-23.745119
 30
0.0
 10
42.314587
 20
-23.731349
 30
0.0
 10
42.487179
 20
-23.704216
 30
0.0
 10
42.686027
 20
-23.505318
 30
0.0
 10
42.713116
 20
-23.332718
 30
0.0
 10
42.726864
 20
-23.245120
 30
0.0
 11
42.226992
 21
-23.745119
 31
0.0
 11
42.479296
 21
-23.676812
 31
0.0
 11
42.658621
 21
-23.497441
 31
0.0
 11
42.726864
 21
-23.245120
 31
0.0
  0
SPLINE
  5
25f
100
AcDbEntity
  8
0
 62
7
100
AcDbSpline
 70
0
 71
3
 72
10
 73
6
 74
4
 40
0.000000
 40
0.000000
 40
0.000000
 40
0.000000
 40
0.174504
 40
0.346509
 40
0.521013
 40
0.521013
 40
0.521013
 40
0.521013
 10
31.800800
 20
-8.125135
 30
0.0
 10
31.859066
 20
-8.119046
 30
0.0
 10
31.974764
 20
-8.106955
 30
0.0
 10
32.131134
 20
-8.016683
 30
0.0
 10
32.199460
 20
-7.922536
 30
0.0
 10
32.233870
 20
-7.875123
 30
0.0
 11
31.800800
 21
-8.125135
 31
0.0
 11
31.972630
 21
-8.094708
 31
0.0
 11
32.121595
 21
-8.008711
 31
0.0
 11
32.233870
 21
-7.875123
 31
0.0
  0
LWPOLYLINE
  5
260
100
AcDbEntity
  8
0
 62
7
100
AcDbPolyline
 90
2
 70
0
 10
27.106880
 20
-42.244955
 30
0.0
 10
27.106880
 20
-27.624715
 30
0.0
  0
LWPOLYLINE
  5
261
100
AcDbEntity
  8
0
 62
7
100
AcDbPolyline
 90
2
 70
0
 10
38.031420
 20
-8.122595
 30
0.0
 10
42.224960
 20
-8.122595
 30
0.0
  0
LWPOLYLINE
  5
262
100
AcDbEntity
  8
0
 62
7
100
AcDbPolyline
 90
2
 70
0
 10
32.664400
 20
-7.624755
 30
0.0
 10
37.165280
 20
-7.624755
 30
0.0
  0
LWPOLYLINE
  5
263
100
AcDbEntity
  8
0
 62
7
100
AcDbPolyline
 90
2
 70
0
 10
42.224960
 20
-23.743595
 30
0.0
 10
27.604720
 20
-23.743595
 30
0.0
  0
LWPOLYLINE
  5
264
100
AcDbEntity
  8
0
 62
7
100
AcDbPolyline
 90
2
 70
0
 10
42.725340
 20
-8.622975
 30
0.0
 10
42.725340
 20
-23.243215
 30
0.0
  0
LWPOLYLINE
  5
265
100
AcDbEntity
  8
0
 62
7
100
AcDbPolyline
 90
2
 70
0
 10
27.604720
 20
-8.122595
 30
0.0
 10
31.800800
 20
-8.122595
 30
0.0
  0
SPLINE
  5
266
100
AcDbEntity
  8
0
 62
7
100
AcDbSpline
 70
0
 71
3
 72
13
 73
9
 74
7
 40
0.000000
 40
0.000000
 40
0.000000
 40
0.000000
 40
0.130908
 40
0.260733
 40
0.391641
 40
0.522550
 40
0.652374
 40
0.783283
 40
0.783283
 40
0.783283
 40
0.783283
 10
27.607006
 20
-8.125135
 30
0.0
 10
27.563242
 20
-8.128458
 30
0.0
 10
27.476075
 20
-8.135077
 30
0.0
 10
27.354124
 20
-8.187525
 30
0.0
 10
27.249175
 20
-8.267339
 30
0.0
 10
27.169334
 20
-8.372268
 30
0.0
 10
27.116855
 20
-8.494205
 30
0.0
 10
27.110214
 20
-8.581370
 30
0.0
 10
27.106880
 20
-8.625134
 30
0.0
 11
27.607006
 21
-8.125135
 31
0.0
 11
27.477220
 21
-8.142238
 31
0.0
 11
27.357268
 21
-8.191897
 31
0.0
 11
27.253371
 21
-8.271536
 31
0.0
 11
27.173705
 21
-8.375413
 31
0.0
 11
27.124016
 21
-8.495352
 31
0.0
 11
27.106880
 21
-8.625134
 31
0.0
  0
LWPOLYLINE
  5
267
100
AcDbEntity
  8
0
 62
7
100
AcDbPolyline
 90
2
 70
0
 10
27.106880
 20
-23.243215
 30
0.0
 10
27.106880
 20
-8.622975
 30
0.0
  0
ENDSEC
  0
SECTION
  2
OBJECTS
  0
DICTIONARY
  5
C
330
0
100
AcDbDictionary
  3
ACAD_GROUP
350
D
  3
ACAD_MLINESTYLE
350
17
  0
DICTIONARY
  5
D
330
C
100
AcDbDictionary
  0
DICTIONARY
  5
1A
330
C
100
AcDbDictionary
  0
DICTIONARY
  5
17
330
C
100
AcDbDictionary
  3
STANDARD
350
18
  0
DICTIONARY
  5
19
330
C
100
AcDbDictionary
  0
ENDSEC
  0
EOF
